top separator

Home

Forum

What's New

Submit a Tab

FAQ

Links

Contact Us

Link to Us

MuSpy.com

MetalTabs.com logo

Bands

0-9

A

B

C

D

E

F

G

H

I

J

K

L

M

N

O

P

Q

R

S

T

U

V

W

X

Y

Z

Search

What

Where
 

Finntroll - "Försvinn Du Som Lyser" Guitar Tab

Plain Text Version
More Finntroll Tabs

Hits: 5483
Rated: 4.67 out of 5 (3 votes)
Updated: 2007-03-26 05:55:37

 

By:

sendpm.gif

email.gif

Important note
This tab is available online because we obtained explicit permission from Finntroll or their label.


#----------------------------------PLEASE NOTE---------------------------------#
#This file is the author's own work and represents their interpretation of the #
#song. You may only use this file for private study, scholarship, or research. #
#Unless specified otherwise, this is NOT an official tab from the band members.#
#------------------------------------------------------------------------------#

  Visit MetalTabs.com for more metal tablature
  
Finntroll
Försvinn Du Som Lyser (Acoustic Version)
Visor Om Slutet (Spikefarm/Spinefarm 2003)
Tabbed by Maedhros113

Standard Tuning E-A-D-G-B-E

The tabs I've seen for this song just didn't sound very accurate,
so I thought I'd put in my two cents about how to play it

questions/comments, email me hessmatt@gmail.com


Riff 1:(Intro and Chorus)
    Em       C/G      Em        G       Em       C/G       G        D
|-0-0-0-0-----------0-0-0-0--3-3-3-3--0-0-0-0-----------3-3-3-3--2-2-2-2--|
|-0-0-0-0--1-1-1-1--0-0-0-0--0-0-0-0--0-0-0-0--1-1-1-1--0-0-0-0--3-3-3-3--|
|-0-0-0-0--0-0-0-0--0-0-0-0--0-0-0-0--0-0-0-0--0-0-0-0--0-0-0-0--2-2-2-2--|
|-2-2-2-2--2-2-2-2--2-2-2-2--0-0-0-0--2-2-2-2--2-2-2-2--0-0-0-0--0-0-0-0--|
|-2-2-2-2--3-3-3-3--2-2-2-2--2-2-2-2--2-2-2-2--3-3-3-3--2-2-2-2-----------|
|-0-0-0-0--3-3-3-3--0-0-0-0--3-3-3-3--0-0-0-0--3-3-3-3--3-3-3-3-----------|


Riff 2:(Verse)
    Em      C/G   ?       Em      C/G    ?
|-0-0-0-0---------------0-0-0-0---------------|
|-0-0-0-0--1-1-1--------0-0-0-0--1-1-1--------|
|-0-0-0-0--0-0-0-0-0-0--0-0-0-0--0-0-0-0-0-0--|
|-2-2-2-2--2-2-2-1-1-1--2-2-2-2--2-2-2-1-1-1--|
|-2-2-2-2--3-3-3-2-2-2--2-2-2-2--3-3-3-2-2-2--|
|-0-0-0-0--3-3-3-2-2-2--0-0-0-0--3-3-3-2-2-2--|


Riff 3:(Verse)
    Em      C/G    ?      Em      C/G    D
|-0-0-0-0---------------0-0-0-0--------2-2-2--|
|-0-0-0-0--1-1-1--------0-0-0-0--1-1-1-3-3-3--|
|-0-0-0-0--0-0-0-0-0-0--0-0-0-0--0-0-0-2-2-2--|
|-2-2-2-2--2-2-2-1-1-1--2-2-2-2--2-2-2-0-0-0--|
|-2-2-2-2--3-3-3-2-2-2--2-2-2-2--3-3-3--------|
|-0-0-0-0--3-3-3-2-2-2--0-0-0-0--3-3-3--------|


Riff 4:(Bridge)
    Em       Em       Em      G    D
|-0-0-0-0--0-0-0-0--0-0-0-0--3-3--2-2--|
|-0-0-0-0--0-0-0-0--0-0-0-0--0-0--3-3--|
|-0-0-0-0--0-0-0-0--0-0-0-0--0-0--2-2--|
|-2-2-2-2--2-2-2-2--2-2-2-2--0-0--0-0--|
|-2-2-2-2--2-2-2-2--2-2-2-2--2-2-------|
|-0-0-0-0--0-0-0-0--0-0-0-0--3-3-------|


Riff 5: (the little beat played by the horn)

|-----------------------------------------|
|-----------------------------------------|
|-----------------------------------------|
|-2---2---2---2-----0-2---2---2---2-----0-|
|---2---2---2---2/4-----2---2---2---2/4---|
|-----------------------------------------|


Song Structure:

Intro
Riff 1 x2

Verse 1
Riff 2 x1
Riff 3 x1
Riff 2 x1
Riff 3 x1

Bridge
Riff 4 x4

Verse 2
Riff 2 x1
Riff 3 x1
Riff 2 x1
Riff 3 x1

Chorus
Riff 1 x2

Bridge
Riff 4 x4

Break
Riff 5 x2

Chorus
Riff 1 x6 (song fades in last 2 repeats)

  Visit MetalTabs.com for more metal tablature

bottom separator

Contact Us | Privacy Policy | Disclaimer | Legal Notice
Copyright © 2001-2014 MetalTabs.com. All Rights Reserved.