top separator

Home

Forum

What's New

Submit a Tab

FAQ

Links

Contact Us

Link to Us

MuSpy.com

MetalTabs.com logo

Bands

0-9

A

B

C

D

E

F

G

H

I

J

K

L

M

N

O

P

Q

R

S

T

U

V

W

X

Y

Z

Search

What

Where
 

Grave - "As Rapture Comes" Guitar Tab

Plain Text Version
More Grave Tabs

Hits: 1860
Updated: 2007-03-26 05:54:48

 

By:

Malevolence

sendpm.gif

email.gif

Important note
We did our best to reach Grave and ask for their permission to publish this tab. Unfortunately they did not respond to our requests or we could not find a way to contact them. This tab is available online until Grave tells us to take it down.


#----------------------------------PLEASE NOTE---------------------------------#
#This file is the author's own work and represents their interpretation of the #
#song. You may only use this file for private study, scholarship, or research. #
#Unless specified otherwise, this is NOT an official tab from the band members.#
#------------------------------------------------------------------------------#

  Visit MetalTabs.com for more metal tablature
  
---AS RAPTURE COMES---
                    --By GRAVE--
         -From The 2006 Album AS RAPTURE COMES-

Tabbed by Scott Carlin
E-mail: the_super_adventures@yahoo.ie

Tuning: Down 5 Half Steps ( B E A D F# B )

Riff 1a x8
||----------------------------------||
||----------------------------------||
||----------------------------------||
||----------------------------------||
||-6-----2-----8-----4-----3--------||
||-4-----0-----6-----2-----1--------||


Riff 1b x4
||----------------------------------||
||----------------------------------||
||----------------------------------||
||----------------------------------||
||-6-----2-----8-----4-----3----3-3-||
||-4-----0-----6-----2-----1----1-1-||
                                . .

Interlude 1 x1
||-------------------------||
||-------------------------||
||-9--10-------------------||
||---------8---7-------3---||
||-7---8-------------------||
||---------6---5-------1---||


Riff 2 x 23
||-------------||
||-------------|| Gtr 2 plays this
||-------------|| 8 times under interlude
||-------------|| 1, this is only once
||-------------|| in the song.
||-0-8p0-0-7p0-||
   .     .

Interlude 2 x1
||--------------------||
||--------------------||
||--------------------||
||--------------------||
||--------------------||
||-0-0-0----------0-0-||
   . . .          . .

Riff 2 x 16
Riff 1a x4
Riff 1b x4

Riff 3a x2
||---------------------------||
||---------------------------||
||---------------------------||
||---------------10-----9----||
||-7---8-10-8-11----11----8--||
||---------------------------||
   "   "  " "  "  "  "  " "

Riff 3b x12
||-----------------------||
||-----------------------||
||-----------------------||
||-----------------------||
||-------------3----2----||
||-0---1-3-1-4---4----1--||
   "   " " " " " "  " "

Riff 2  x20
Riff 1a x 4
Riff 1b x 4
Riff 3b x 8

Riff 3c x12
||---------------------------------||
||---------------------------------||
||---------------------------------||
||-----------------5-------4-------||
||-2-2-2-2-3-5-3-6-3-6-6-6-2-3-3-3-||
||-0-0-0-0-1-3-1-4---4-4-4---1-1-1-||
   . . . . . . . .   . . .   . . .

Riff 3b x8

END

  Visit MetalTabs.com for more metal tablature

bottom separator

Contact Us | Privacy Policy | Disclaimer | Legal Notice
Copyright © 2001-2014 MetalTabs.com. All Rights Reserved.