top separator

Home

Forum

What's New

Submit a Tab

FAQ

Links

Contact Us

Link to Us

MuSpy.com

MetalTabs.com logo

Bands

0-9

A

B

C

D

E

F

G

H

I

J

K

L

M

N

O

P

Q

R

S

T

U

V

W

X

Y

Z

Search

What

Where
 

Doro - "Heaven I See" Guitar Tab

Plain Text Version
More Doro Tabs

Hits: 2745
Rated: 4.50 out of 5 (2 votes)
Updated: 2007-03-20 01:29:03

 

By:

zerofret

sendpm.gif

email.gif

Important note
This tab is available online because we obtained explicit permission from Doro or their label.


#----------------------------------PLEASE NOTE---------------------------------#
#This file is the author's own work and represents their interpretation of the #
#song. You may only use this file for private study, scholarship, or research. #
#Unless specified otherwise, this is NOT an official tab from the band members.#
#------------------------------------------------------------------------------#

  Visit MetalTabs.com for more metal tablature
  
-----------------------------------------------------------------------------
                             HEAVEN I SEE - Doro
-----------------------------------------------------------------------------

Written by: D.Pesch/G.Scruggs
CD: "Warrior Soul"        (2006, AFM Records)
Guitarists: Joe Taylor, Oliver Palotai

Tabbed by: A.Drury   (zerofret)
Email: zerofret_ad@hotmail.com
Date: March 17, 2007

INTRO:

   Am            Asus2
 E -------------|---------0---|
 B -------1-0---|-------0---0-|
 G -----2-----0-|-----2-------|
 D ---2---------|---2---------|   4x
 A -0-----------|-0-----------|
 E -------------|-------------|


Play this lead guitar part the 2nd time through the above arpeggio part:

 E -------------|-------------|-------------|
 B -------------|-------------|-------------|
 G -5~~---------|-------5-4-0-|-2~~---------|
 D -------------|-------------|-------------|
 A -------------|-------------|-------------|
 E -------------|-------------|-------------|


1ST VERSE:

   G                           Am            Asus2
 E -------------|-------------|-------------|---------0---|
 B -------0-----|-------0-----|-------1-0---|-------0---0-|
 G -----2---2---|-----2---2---|-----2-----0-|-----2-------|
 D ---0-------0-|---0-------0-|---2---------|---2---------|
 A -------------|-------------|-0-----------|-0-----------|
 E -3-----------|-3-----------|-------------|-------------|
   you,               Heaven I see


   Em                          Am            Asus2
 E -------------|-------------|-------------|---------0---|
 B -------0-----|-------0-----|-------1-0---|-------0---0-|
 G -----0---0---|-----0---0---|-----2-----0-|-----2-------|
 D ---2-------2-|---2-------2-|---2---------|---2---------|
 A -------------|-------------|-0-----------|-0-----------|
 E -0-----------|-0-----------|-------------|-------------|
   do


   F                           Am            Asus2
 E -------------|-------------|-------------|---------0---|
 B -------1-----|-------1-----|-------1-0---|-------0---0-|
 G -----2---2---|-----2---2---|-----2-----0-|-----2-------|
 D ---3-------3-|---3-------3-|---2---------|---2---------|
 A -------------|-------------|-0-----------|-0-----------|
 E -1-----------|-1-----------|-------------|-------------|
   I'm sad


   Em
 E -------------|-------------|
 B -------0-----|-------------|
 G -----0---0---|-------------|
 D ---2-------2-|-------------|
 A -------------|-------------|
 E -0-----------|-0-----------|
   falling


CHORUS 1:

   Am            Asus2         F
 E -------------|---------0---|-------------|-------------|
 B -------1-0---|-------0---0-|-------1-----|-------1-----|
 G -----2-----0-|-----2-------|-----2---2---|-----2---2---|
 D ---2---------|---2---------|---3-------3-|---3-------3-|
 A -0-----------|-0-----------|-------------|-------------|
 E -------------|-------------|-1-----------|-1-----------|
   see                                            devil in


Gt1 Dm           F             Am            Asus2
 E -------1-----|-------------|-------------|---------0---|
 B -----3---3---|-------1-----|-------1-0---|-------0---0-|
 G ---2-------2-|-----2---2---|-----2-----0-|-----2-------|
 D -0-----------|---3-------3-|---2---------|---2---------|
 A -------------|-------------|-0-----------|-0-----------|
 E -------------|-1-----------|-------------|-------------|
   me                   Heaven|I see                      |
                              |                           |
                              |Gt2                        |
                              |-------------|-------------|
                              |------13--12-|-------------|
                              |-------------|-14----------|
                              |-------------|-------------|
                              |-------------|-------------|
                              |-------------|-------------|

Gt1 Am           Asus2
 E|-------------|---------0---|
 B|-------1-0---|-------0---0-|
 G|-----2-----0-|-----2-------|
 D|---2---------|---2---------|
 A|-0-----------|-0-----------|
 E|-------------|-------------|
  |                           |
Gt2                           |
 E|-------------|-------------|
 B|-------------|-------------|
 G|/5~--------4-|-2~----------|
 D|-------------|-------------|
 A|-------------|-------------|
 E|-------------|-------------|


2ND VERSE:   (continue arpeggio part as in the 1st Verse)

   G5                          A5
 E -------------|-------------|-------------|-------------|
 B -------------|-------------|-------------|-------------|
 G -------7^w==r|\4~~---------|-------------|-------------|
 D -5-----------|-------------|-7-----------|-------------|
 A -5-----------|-------------|-7-----------|-------------|
 E -3-----------|-------------|-5-----------|-------------|
   die


   E5                          A5
 E -------------|-------------|-------------|-------------|
 B -------------|-------------|-------------|-------------|
 G ------9^(12)=|r9-----------|-------------|-------------|
 D -2-----------|-------------|-7-----------|-------------|
 A -2-----------|-------------|-7-----------|-------------|
 E -0-----------|-------------|-5-----------|-------------|
   life


   F5                          A5
 E -------------|-------------|-------------|-------------|
 B -------------|-------------|-------------|-------------|
 G -------------|-------------|-------------|-------------|
 D -3-----------|-------------|-7-----------|-------------|
 A -3-----------|-------------|-7-----------|-------------|
 E -1-----------|-------------|-5-----------|-------------|
   I'm sad


   E5
 E -------------|-------------|
 B -------------|-------------|
 G -------------|-9-----5-4-2-|
 D -2-----------|-9-----5-4-2-|
 A -2-----------|-7-----3-2-0-|
 E -0-----------|-------------|
   falling


CHORUS 2:   (play arpeggio part as in Chorus 1)

   A5                          F5
 E -------------|-------------|-------------|-------------|
 B -------------|-------------|-------------|-------------|
 G -2---------2-|-2-----------|-------------|-------------|
 D -2---------2-|-2-----------|-3-----------|-------------|
 A -0---------0-|-0-----3-2---|-3---------2-|-3-----3-2-0-|
 E -------------|-----------1-|-1-----------|-------------|
   see,                                           devil in


   D5            F5            A5
 E -------------|-------------|-------------|-------------|
 B -------------|-------------|-------------|-------------|
 G -7-----------|-10----------|-2-2-2-2-2-2-|-2-2-2-------|
 D -7-----------|-10----------|-2-2-2-2-2-2-|-2-2-2-5-4-4-|
 A -5-----3-2-0-|-8-----3-2-0-|-0-0-0-0-0-0-|-0-0-0-3-2-2-|
 E -------------|-------------|-------------|-------------|
   me                           . . . . . .   . . .
                               see

   A5
 E -------------|
 B -------------|
 G -----2-2-2-2-|
 D -2---2-2-2-2-|
 A -0---0-0-0-0-|
 E -------------|
        . . . .

BRIDGE:

   Bb5           A5                    Bb5             A5
 E -------------|---------7---8---10--|-12^s----------|------------------|
 B -------------|----10---------------|---------------|------------------|
 G -3-----------|-----9-9---9---9----9|------------5-7|-7^w=rp5--7^w=rp5-|
 D -3-----------|-----7---------------|-----------7---|------------------|
 A -1-----------|---------------------|---------------|------------------|
 E -------------|---------------------|---------------|------------------|
   I've walked      [rake]


   Bb5           A5            E5
 E -------------|-------------|-------------|-------------|
 B -------------|-------------|-------------|-------------|
 G -7~~---------|-------------|-2^w---------|-------5-4-2-|
 D -------------|-------------|-------------|-2-----5-4-2-|
 A -------------|-------------|-------------|-2-----3-2-0-|
 E -------------|-------------|-------------|-0-----------|
   You lifted


Play CHORUS 2, then:

   A5                          F5
 E -------------|-------------|-------------|-------------|
 B -------------|-------------|-------------|-------------|
 G -2---2-2-2-2-|-2-----5-4---|-------------|-------------|
 D -2---2-2-2-2-|-2-----5-4-5-|-3-----------|-------------|
 A -0---0-0-0-0-|-0-----3-2-5-|-3---------2-|-3~----3-2-0-|
 E -------------|-----------3-|-1-----------|-------------|
        . . . .
   see                                            devil in


   D5            F5            A5
 E -------------|-------------|-------------|-------------|
 B -------------|-------------|-------------|-------------|
 G -7-----------|-10----------|-2-2-2-2-2-2-|-2-2-2-5-4-4-|
 D -7-----------|-10----------|-2-2-2-2-2-2-|-2-2-2-5-4-4-|
 A -5-----3-2-0-|-8-----3-2-0-|-0-0-0-0-0-0-|-0-0-0-3-2-2-|
 E -------------|-------------|-------------|-------------|
                                . . . . . . | . . .       |
   me                  Heaven I see,        |             |
                                            |             |
                                            |-------------|
                                            |-------------|
                                    (lead)  |-----------12|
                                            |---------14--|
                                            |-------------|
                                            |-------------|


CHORUS:  (play Chorus 2, with this lead part added in)

   A5                                F5
 E ----------------|----------------|----------------|----------------|
 B ----------------|--------------12|-12h13--------12|-12h13-----13-15|
 G -12h14--------12|-12h14------14--|------------14--|----------------|
 D ------------14--|----------------|----------------|----------------|
 A ----------------|----------------|----------------|----------------|
 E ----------------|----------------|----------------|----------------|
   see


   D5               F5               A5
 E ----------------|----------------|----------------|----------------|
 B -15^w~-----13-15|-15^w~-=-=-=-=r-|-13-------------|----------------|
 G ----------------|----------------|----14~~--------|----------5-4-4-|
 D ----------------|----------------|----------------|----------5-4-4-|
 A ----------------|----------------|----------------|----------3-2-2-|
 E ----------------|----------------|----------------|----------------|
   me                       Heaven I see


   A5                          F5
 E -------------|-------------|-------------|-------------|
 B -------------|-------------|-------------|-------------|
 G -2---------2-|-2-----------|-------------|-------------|
 D -2---------2-|-2-----------|-3-----------|-------------|
 A -0---------0-|-0-----3-2---|-3---------2-|-3-----3-2-0-|
 E -------------|-----------1-|-1-----------|-------------|
   see


   D5            F5            A5
 E -------------|-------------|-------------|-------------|-----------|
 B -------------|-------------|-------------|-------------|-----------|
 G -7-----------|-10----------|-2-2-2-2-2-2-|-2-----5-4---|-----------|
 D -7-----------|-10----------|-2-2-2-2-2-2-|-2-----5-4-5-|-7---------|
 A -5-----3-2-0-|-8-----3-2-0-|-0-0-0-0-0-0-|-0-----3-2-5-|-7---------|
 E -------------|-------------|-------------|-----------3-|-5---------|
                                . . . . . .
   me                 Heaven I see                         (hold chord)


OUTRO:

   Am            Asus2
 E -------------|---------0---|
 B -------1-0---|-------0---0-|
 G -----2-----0-|-----2-------|
 D ---2---------|---2---------|   (repeat to fade)
 A -0-----------|-0-----------|
 E -------------|-------------|


The 3rd time through the above arpeggio part, this lead part enters:


 E -------------|-------------|-------------|-------------|
 B -------------|-------------|-12h13-------|--------13h15|
 G -12h14-------|-------------|-------------|-------------|
 D -------------|-------------|-------------|-------------|
 A -------------|-------------|-------------|-------------|
 E -------------|-------------|-------------|-------------|


 E -------------|-------------|-------------|-------------|
 B -15h17-------|--12h13-12---|-------------|-------------|
 G -------------|-----------12|-12h14-------|-------------|
 D -------------|-------------|-------------|--------14p12|
 A -------------|-------------|-------------|-------------|
 E -------------|-------------|-------------|-------------|


 E -------------|-------------|-------------|-------------|
 B -------------|-------------|-------------|-------------|
 G -------------|-------------|-------------|-------------|
 D h14------10p9|h10----------|-----7p5-7---|-------------|
 A -------------|-------------|-------------|-------------|
 E -------------|-------------|-------------|-------------|

(fade)

-----------------------------------------------------------------------------
Notes:
-Bar lines indicate measures of 6/8 time
-Dots (...) under a staff indicate that the note or chord should be palm
 muted.
-Some parts of Chorus 2 I couldn't hear too clearly in the mix. What I
 tabbed mixes the rhythm and the lead guitar part together.
-guitar tabs - http://www.angelfire.com/planet/zerofret (directly into
 browser)

^...bend (w=whole tone,s=semi)            ~...vibrato
r...release bend                          =...hold note
h...hammer on                             \...slide down
p...pull off                              ... palm mute (seen under staff)

(This file is the transcriber's own work and represents
their interpretation of the song.)

  Visit MetalTabs.com for more metal tablature

bottom separator

Contact Us | Privacy Policy | Disclaimer | Legal Notice
Copyright © 2001-2014 MetalTabs.com. All Rights Reserved.