top separator

Home

Forum

What's New

Submit a Tab

FAQ

Links

Contact Us

Link to Us

MuSpy.com

MetalTabs.com logo

Bands

0-9

A

B

C

D

E

F

G

H

I

J

K

L

M

N

O

P

Q

R

S

T

U

V

W

X

Y

Z

Search

What

Where
 

Thin Lizzy - "Thunder And Lightning" Guitar Tab

Plain Text Version
More Thin Lizzy Tabs

Hits: 3350
Updated: 2007-03-13 00:18:01

 

By:

Dahmers Fridge

sendpm.gif

email.gif

Important note
We did our best to reach Thin Lizzy and ask for their permission to publish this tab. Unfortunately they did not respond to our requests or we could not find a way to contact them. This tab is available online until Thin Lizzy tells us to take it down.


#----------------------------------PLEASE NOTE---------------------------------#
#This file is the author's own work and represents their interpretation of the #
#song. You may only use this file for private study, scholarship, or research. #
#Unless specified otherwise, this is NOT an official tab from the band members.#
#------------------------------------------------------------------------------#

  Visit MetalTabs.com for more metal tablature
  
Band:  Thin Lizzy
Album: Thunder and Lightning
Song:  Thunder and Lightning

Copyright (c)  (Vertigo) (1983)
Version 1.0 - (06/03/07)

Transcribed By: Steve
Email:          stephen.elvidge1@ntlworld.com


.  - palm mute           /  - slide up to
\  - slide down to       ~  - vibrato
h  - hammer on           b  - Bend
p  - pull off            Suffixes for bend
t  - tap                 f  - full bend    h - half bend
ph - pinched harmonic    q  - quarter bend t - tap bend
*  - see comment         ^  - Hold bend    r release bend
x  - Stuccatto           ~  - vibrato bend
,  - slight palm mute    () - ghost note, sustained note
"  - tremolo note        <> - harmonic
pb - pre bend

Tuning E A D G B E



 Light palm mute
|--------------|
|--------------|
|--------------|
|--------------|
|-2-4-5-4-2----|
|-----------0--| Rpt


|------------------------------|
|------------------------------|
|------------------------------|
|------------------------------|
|-2-4-5-4-2p0-4p2p0---2p0------|
|-------------------3-----3p0--|

 Guitar 1
[--------------|
[--------------|
[--------------|
[--------------|
[-2-4-5-4-2----|
[-----------0--|
[Guitar 2 low in mix
[--------------|
[--------------|
[-4-6-7-6-4----|
[-----------2--|
[--------------|
[--------------| Rpt

 Guitar 1
[----------------------------|
[----------------------------|
[----------------------------|
[----------------------------|
[-2-4-5-4-2p0-4p2p0---2p0----|
[-------------------3-----3p-|
[Guitar 2low in mix
[----------------------------|
[----------------------------|
[-4-6-7-6-4---6p7-----4------|
[-----------7-----7-5---7-5--|
[----------------------------|
[----------------------------|



|-------------------------------------------------------------------|
|-------------------------------------------------------------------|
|-------------------------------------------------------------------|
|-------------------------------------------------------------------|
|-2-2-2-2-2-2-2-2--------------------(2)----------------------------|
|-0-0-0-0-0-0-0-0--------------------(0)----------------------------|

 Verse

        [-PM-]
|-------------|
|-------------|
|-7-/9--------|
|-7-/9--------|
|-5-/7--------|
|-------0-0-0-| Rpt 16 X

 Chorus

|---------------------------------------------------|
|-----------------5p4-------------------------------|
|---------------------4-----------------------------|
|-4-------(4)-----------4-4-------(4)------7\6\4----|
|-2-------(2)-------------2-------(2)------5\4\2-0--|
|---------------------------------------------------|


 Guitar 1
[--------------------7--7------------------------------|
[--------------------7--7------------------------------|
[------------------------------------------------------|
[-4-------(4)-------------4-------(4)------------------|
[-2-------(2)-------------2-------(2)-----/55\44\22-0--|
[------------------------------------------------------|
[Guitar 2
[                                         [---PM---]
[------------------------------------------------------|
[------------------------------------------------------|
[------------------4-4--4------------------------------|
[-4-------(4)------4-4--4-4-------(4)------------------|
[-2-------(2)-------------2-------(2)-----/55\44\22-0--|
[------------------------------------------------------|

 Rpt Verse and Chorus

  ~~~~ ~~~ ~~~ ~~~~~
|---------------------|
|---------------------|
|---------------------|
|---------------------|
|-2---4---5---6----/\-|
|---------------------|

 Backing for solo

        [-PM-]
|-------------|
|-------------|
|-------------|
|----2--------|
|----0--0-0-0-|
|-3-----------| Rpt

     ~~~   ~~~       [-PM-]
|---------------------------|
|---------------------------|
|---------------------------|
|------------------2--------|
|------------------0--0-0-0-|
|-0--3--0--3--0--3----------|

 Rpt Above 3 X

        [-PM-]
|-------------|
|-------------|
|-------------|
|----2--------|
|----0--0-0-0-|
|-3-----------| Rpt

     ~~~   ~~~
|------------------|
|------------------|
|------------------|
|------------------|
|------------------|
|-0--3--0--3--0--3-| Rpt 3 X

     ~~~   ~~~    ~~~   ~~~   ~~~   ~~~   ~~~   ~~~
|---------------------------------------------------|
|---------------------------------------------------|
|---------------------------------------------------|
|---------------------------------------------------|
|---------------------------------------------------|
|-0--3--0--4--0--5--0--6--0--7--0--8--0--9--0--10---|

 Rpt Verse and Chorus

 Rpt Backing for solo for keyboard solo.

     ~~~   ~~~    ~~~   ~~~   ~~~   ~~~   ~~~   ~~~
|---------------------------------------------------|
|---------------------------------------------------|
|---------------------------------------------------|
|---------------------------------------------------|
|---------------------------------------------------|
|-0--3--0--4--0--5--0--6--0--7--0--8--0--9--0--10---| Rpt 3 X

     ph~~   ph~~~  ph~~~  ph~~~  ph~~~  ph~~~  ph~~~
|---------------------------------------------------|
|---------------------------------------------------|
|---------------------------------------------------|
|---------------------------------------------------|
|---------------------------------------------------|
|-0--10--0--10--0--10--0--10--0--10--0--10--0--10---|


|--------------------------------------------------------------------|
|--------------------------------------------------------------------|
|--------------------------------------------------------------------|
|--------------------------------------------------------------------|
|-2-4-5-4-2p0-4p2p0---2p0---2--------------------(2)-----------------|
|-------------------3-----3p0--------------------(0)-----------------|

 Rpt Verse 2 x for backing to 2nd guitar solo.

 Rpt Chorus

 3rd Verse

  ~~~   [-PM-]
|-------------|
|-------------|
|-------------|
|----2--------|
|----0--0-0-0-|
|-3-----------| Rpt

     ~~~   ~~~       [-PM-]
|---------------------------|
|---------------------------|
|---------------------------|
|------------------2--------|
|------------------0--0-0-0-|
|-0--3--0--3--0--3----------|

 Rpt Above 3 X


  ~~~   [-PM-]
|-------------|
|-------------|
|-------------|
|----2--------|
|----0--0-0-0-|
|-3-----------| Rpt

     ~~~   ~~~
|------------------|
|------------------|
|------------------|
|------------------|
|------------------|
|-0--3--0--3--0--3-| Rpt 3 X


     ph~   ph~~  ph~~  ph~~  ph~~  ph~~  ph~~  ph~~
|---------------------------------------------------|
|---------------------------------------------------|
|---------------------------------------------------|
|---------------------------------------------------|
|---------------------------------------------------|
|-0--3--0--4--0--5--0--6--0--7--0--8--0--9--0--10---| Rpt 2 X

 Guitar 1
     ph~   ph~~  ph~~  ph~~  ph~~  ph~~  ph~~  ph~~
[---------------------------------------------------|
[---------------------------------------------------|
[---------------------------------------------------|
[----5-----6-----7-----8-----9-----10----11----12---|
[---------------------------------------------------|
[---------------------------------------------------|
[Guitar 2
[    ph~   ph~~  ph~~  ph~~  ph~~  ph~~  ph~~  ph~~
[---------------------------------------------------|
[---------------------------------------------------|
[---------------------------------------------------|
[---------------------------------------------------|
[---------------------------------------------------|
[-0--3--0--4--0--5--0--6--0--7--0--8--0--9--0--10---|


 Guitar 1
     ph~~   ph~~~  ph~~~  ph~~~  ph~~~  ph~~~  ph~~~
[---------------------------------------------------|
[---------------------------------------------------|
[---------------------------------------------------|
[----12-----12-----12-----12-----12-----12-----12---|
[---------------------------------------------------|
[---------------------------------------------------|
[Guitar 2
[    ph~~   ph~~~  ph~~~  ph~~~  ph~~~  ph~~~  ph~~~
[---------------------------------------------------|
[---------------------------------------------------|
[---------------------------------------------------|
[---------------------------------------------------|
[---------------------------------------------------|
[-0--10--0--10--0--10--0--10--0--10--0--10--0--10---|

 Rpt Intro 4 X

|------------------------------|
|------------------------------|
|------------------------------|
|------------------------------|
|-2-4-5-4-2p0-4p2p0---2p0---2--|
|-------------------3-----3p0--|



END

  Visit MetalTabs.com for more metal tablature

bottom separator

Contact Us | Privacy Policy | Disclaimer | Legal Notice
Copyright © 2001-2014 MetalTabs.com. All Rights Reserved.