top separator

Home

Forum

What's New

Submit a Tab

FAQ

Links

Contact Us

Link to Us

MetalTabs.com logo

Bands

0-9

A

B

C

D

E

F

G

H

I

J

K

L

M

N

O

P

Q

R

S

T

U

V

W

X

Y

Z

Search

What

Where
 

Autopsy - "Charred Remains" Bass Tab

Plain Text Version
More Autopsy Tabs

Hits: 3395
Rated: 5.00 out of 5 (1 vote)
Updated: 2007-03-12 23:29:46

 

By:

sendpm.gif

email.gif

Important note
This tab is available online because we obtained explicit permission from Autopsy or their label.


#----------------------------------PLEASE NOTE---------------------------------#
#This file is the author's own work and represents their interpretation of the #
#song. You may only use this file for private study, scholarship, or research. #
#Unless specified otherwise, this is NOT an official tab from the band members.#
#------------------------------------------------------------------------------#

  Visit MetalTabs.com for more metal tablature
  
Band:   Autopsy
Album: Severed Survival
Song:  Charred Remains

Copyright (c)  Peaceville  1989
Version 1.0 - 3/7/07

Transcribed By: Gleb Kanasevich
Email:          glebvic@yahoo.com

.  - palm mute           /  - slide up to
\  - slide down to       ~  - vibrato
h  - hammer on           b  - Bend
p  - pull off            Suffixes for bend
t  - tap                 f  - full bend    h - half bend
ph - pinched harmonic    q  - quarter bend t - tap bend
*  - see comment         ^  - Hold bend    r release bend
x  - Stuccatto           ~  - vibrato bend
,  - slight palm mute    () - ghost note, sustained note
"  - tremolo note        <> - Trill

Tuning C F Bb Eb

Intro: RIFF A
|----------------|
|----------------|
|----------------|
|3---3---3---3---|

RIFF B
|--------------------------------|
|--------------------------------|
|--5-1-----5-1-----5-1-----5-1---|
|3-----2-3-----2-3-----2-3-----2-|

RIFF C
|----------------------------------------------------------------|
|----------------------------------------------------------------|
|-------3-----3---------5---------------3-----3---------5--------|
|4444444--4444-43-333333--3333334-444444--4444-43-333333--3333334|

|----------------------------------------------------------------|
|----------------------------------------------------------------|
|-------3-----3---------5---------------3-----3---------5-----5--|
|-444444--4444-43-333333--3333334-444444--4444-43-333333--3333-34|

|---------------|
|---------------|
|-------3-----3-|
|-444444--4444-4|

RIFF D
|----------------|
|----------------|
|----------------|
|3---3---3---3---|

RIFF E
|----------------------------------------------------------------|
|----------------------------------------------------------------|
|-------3-----3---------5---------------3-----3---------5--------|
|4444444--4444-43-333333--3333334-444444--4444-43-333333--3333334|

|----------------------------------------------------------------|
|----------------------------------------------------------------|
|-------3-----3---------5---------------3-----3---------5-----5--|
|-444444--4444-43-333333--3333334-444444--4444-43-333333--3333-34|

|-------------------|
|-------------------|
|-------3-----3-----|
|-444444--4444-43---|

RIFF F
|------------------------------------------------|
|------------------------------------------------|
|------------------------------------------------|
|3-33334-44443-33333-4-4-3-33334-44442-22222-4-2-|

|------------------------------------------------------------------|
|------------------------------------------------------------------|
|------------------------------------------------------------------|
|3-33334-44443-33334-4-4-3---2-3-6-3-2-----------1--1--1--4--4--4--|

|------------------------------------------------|
|------------------------------------------------|
|------------------------------------------------|
|3-33334-44443-33333-4-4-3-33334-44442-22222-4-2-|

|------------------------------------------------------------------|
|------------------------------------------------------------------|
|------------------------------------------------------------------|
|3-33334-44443-33334-4-4-3---2-3-6-3-2-----------1--1--1--4--4--4--|

RIFF G
|----------------------------------------------------------------|
|----------------------------------------------------------------|
|--------------5-------------------------------5-----------------|
|33333333222222-6555555554444444433333333222222-65555555544444444|

|----------------------------------------------------------------|
|----------------------------------------------------------------|
|--------------5-------------------------------5-----------------|
|33333333222222-6555555554444444433333333222222-65555555544444444|

|--------|
|--------|
|--------|
|33333333|

RIFF H
|----------------------------------------------------------------|
|----------------------------------------------------------------|
|------------------------------------------------------------3---|
|2---2-2-22222-3-2---2-2-22222-3-1---1-1-11111-1-4-4-44444444--4-|

|----------------------------------------------------------------|
|----------------------------------------------------------------|
|------------------------------------------------------------3---|
|2---2-2-22222-3-2---2-2-22222-3-1---1-1-11111-1-4-4-44444444--4-|

|----------------------------------------------------------------|
|----------------------------------------------------------------|
|------------------------------------------------------------3---|
|2---2-2-22222-3-2---2-2-22222-3-1---1-1-11111-1-4-4-44444444--4-|

|----------------------------------------------------------------|
|----------------------------------------------------------------|
|--------------------------------------------------------3-----3-|
|2---2-2-22222-3-2---2-2-22222-3-1---1-1-11111-1-4-444444--4444-4|

|-----------------|
|-----------------|
|--------5-----5--|
|3-333333--3333-34|

RIFF I
|----------------------------------------------------------------|
|----------------------------------------------------------------|
|-------3-----3---------5---------------3-----3---------5--------|
|4444444--4444-43-333333--3333334-444444--4444-43-333333--3333333|

|----------------------------------------------------------------|
|----------------------------------------------------------------|
|--------3---- 3---------5---------------3-----3---------5-------|
|4-444444--4444-43-333333--3333334-444444--4444-43-333333--333333|

RIFF J
|--------------------------------------------|
|--------------------------------------------|
|--------------------------------------------|
|3---2---1---3---2---1---3---2---1---3---2---|

RIFF K
|-----------------------------------|
|-----------------------------------|
|-----------------------------------|
|1---------------------------1-4bh5-|

|--------------------------------------|
|--------------------------------------|
|--1-0---0------------1-0---0----------|
|2-----2---4-1-4bh5-2-----2---4-1-4bh5-|

|--------------------------------------|
|--------------------------------------|
|--1-0---0------------1-0---0----------|
|2-----2---4-1-4bh5-2-----2---4-1-4bh5-|

|-----------------------||
|-------------------4\--||
|--1-0---0--------------||
|2-----2---4-1-4bh5-----||

END

  Visit MetalTabs.com for more metal tablature

bottom separator

Contact Us | Privacy Policy | Disclaimer | Legal Notice
Copyright © 2001-2014 MetalTabs.com. All Rights Reserved.