top separator

Home

Forum

What's New

Submit a Tab

FAQ

Links

Contact Us

Link to Us

MetalTabs.com logo

Bands

0-9

A

B

C

D

E

F

G

H

I

J

K

L

M

N

O

P

Q

R

S

T

U

V

W

X

Y

Z

Search

What

Where
 

Open Grave - "Death Camp (Open Grave)" Guitar Tab

Plain Text Version
More Open Grave Tabs

Hits: 1588
Rated: 5.00 out of 5 (2 votes)
Updated: 2007-03-12 23:25:05

 

By:

underaserpentsun

sendpm.gif

email.gif

Important note
This tab is available online because we obtained explicit permission from Open Grave or their label.


#----------------------------------PLEASE NOTE---------------------------------#
#This file is the author's own work and represents their interpretation of the #
#song. You may only use this file for private study, scholarship, or research. #
#Unless specified otherwise, this is NOT an official tab from the band members.#
#------------------------------------------------------------------------------#

  Visit MetalTabs.com for more metal tablature
  
Band:  Open Grave
Album: Open Grave/Krieg Split 7
Song:  Deathcamp

Copyright (c)  Regimental Records(2004)

Transcribed By: underaserpentsun
Email:

.  - palm mute           /  - slide up to
\  - slide down to       ~  - vibrato
h  - hammer on           b  - Bend
p  - pull off            Suffixes for bend
t  - tap                 f  - full bend    h - half bend
nh  natural harmonic    q  - quarter bend t - tap bend
ph - pinched harmonic    ^  - Hold bend    r release bend
*  - see comment         ~  - vibrato bend
x  - Stuccatto           () - ghost note, sustained note
,  - slight palm mute    <> - Trill
"  - tremolo note


Tuning Standard E A D G B E

Riff A                                            3x
|---------------------------------------------------|
|---------------------------------------------------|
|---------------------------------------------------|
|-------------------------------------------4-------|
|---4-3-4p3-----4-3-4p3-----4-3-4p3-----4-3---4-3---|
|-2---------3-2---------3-2---------3-2-------------|
  . . .     . . . .     . . . .     . . . .

|---------------------------------------------------|
|---------------------------------------------------|
|---------------------------------------------------|
|---------------------------------------------------|
|---4-3-4p3-----4-3-4p3-----4-3-4p3-----4-3-4-3-----|
|-2---------3-2---------3-2---------3-2---------3-2-|
  . . .     . . . .     . . . .     . . . . . . . .

Riff B                                                            6x
|-------------------------------------------------------------------|
|-------------------------------------------------------------------|
|-------------------------------------------------------------------|
|-------------------------------------------------------------------|
|-----------------4-4-4-4-4-------3-3-3-3-3-------4-3---3-----------|
|-2-2-2-2-2-3-2-3-----------3-2-3-----------3-2-3-----3---3-2-------|
  . . . . . . . . . . . . . . . . . . . . . . . . . . . . . .







Riff C                              7x
|-------------------------------------|
|-------------------------------------|
|-------------------------------------|
|-------------------------------------|
|-----------4-4-4-4-4-3-3-3-3-3-------|
|-2-2-2-2-2---------------------2-3-2-|
  . . . . . . . . . . . . . . . . . .

Riff D            4x
|-------------------|
|-------------------|
|-------------------|
|-------------------|
|-4-3-7-3-------|
|-2--1--5--1--3-2-3-|
  .  .  .  .  . . .

Repeat Riff C 7x

Riff E          4x
|-----------------|
|-----------------|
|-----------------|
|---6-------------|
|-4-4-7-8-7-8-7-5-|
|-2---5-6-5-6-5-3-|
              . .

Riff F (play over last 2 Riff Es)   2x
|--------------------------------------|
|--------------------------------------|
|--------------------------------------|
|--------------------------------------|
|---4-0-3f-0-1-3-1-0-3-1-0-3-1-0-3-1-0-|
|-2------------------------------------|
               . . . . . . . . . . . .

Repeat Riff B 4x
Repeat Riff A 2x

END

  Visit MetalTabs.com for more metal tablature

bottom separator

Contact Us | Privacy Policy | Disclaimer | Legal Notice
Copyright © 2001-2014 MetalTabs.com. All Rights Reserved.