top separator

Home

Forum

What's New

Submit a Tab

FAQ

Links

Contact Us

Link to Us

MuSpy.com

MetalTabs.com logo

Bands

0-9

A

B

C

D

E

F

G

H

I

J

K

L

M

N

O

P

Q

R

S

T

U

V

W

X

Y

Z

Search

What

Where
 

Gorguts - "Orphans of Sickness" Guitar Tab

Plain Text Version
More Gorguts Tabs

Hits: 3201
Rated: 5.00 out of 5 (4 votes)
Updated: 2007-03-12 23:17:52

 

By:

Sycophant

sendpm.gif

email.gif

Important note
This tab is available online because we obtained explicit permission from Gorguts or their label.


#----------------------------------PLEASE NOTE---------------------------------#
#This file is the author's own work and represents their interpretation of the #
#song. You may only use this file for private study, scholarship, or research. #
#Unless specified otherwise, this is NOT an official tab from the band members.#
#------------------------------------------------------------------------------#

  Visit MetalTabs.com for more metal tablature
  
Author/Artist: Gorguts
Title: Orphans Of Sickness
Album: The Erosion Of Sanity [1993 Roadrunner Records]
Transcribed by: Greg D. [Sycophant]
Email: sentience666@hotmail.com

Tune To C#
. = palm mutes
* = pinch harmonic
^ = natural harmonic
" = tremelo picking


0:01 - 0:32 Guitar 1
------------------------------------------------------------------------------
------------------------------------------------------------------------------
------------------------------------------------------------------------------
------------------------------------------------------------------------------
-7-6---6-------------------------------------6/7\6---6---5/6-6-6-6-6-4/5-5-5--
-5-4-0-4-5-7-8-5-8-5-4-6-7-4-7-4-0-2-4-0-4-0-------8---8-7/8-8-8-8-8-6/7-7-7--
 . . . . . . . . . . . . . . . . . . . . . .       . . .     . . . .     . .

-------------------|
-------------------|
-------------------|
-------------------| x4
-5-5-2--3-2-2/3-*--|
-7-7-0--1-0-3/4-3--|
 . .    . .


0:01 - 0:32 Guitar 2
------------------------------------------------------------------------------
------------------------------------------------------------------------------
-2-1---1-2-4-5-2-5-2-1-3-4-1-4-1-------------------------7/8---------6/7------
-----3---------------------------2-4-6-2-6-2----------------------------------
---------------------------------------------6/7\6---6-6-5/6-6-6-6-6-4/5-5-5--
---------------------------------------------------8--------------------------
 . . . . . . . . . . . . . . . . . . . . . .       . . .     . . . .     . .

-------------------|
-------------------|
-------------------|
-------------------| x4
-5-5-2--3-2-2/3-2--|
-----0--1-0-3/4-3--|
 . .    . .


0:32 - 0:48 Guitar 1
------------------------------------------------|
------------------------------------------------|
------------------------------------------------|
------------------------------------------------| x4
-00003333----22225555111100003333--------2h3p2--|
---------4444--------------------44445-4--------|
                                     . .

0:32 - 0:48 Guitar 2
------------------------------------------------|
------------------------------------------------|
-----------------2222---------------------------|
-2222555511114444----33332222555511112-1-4h5p4--|
------------------------------------------------|
------------------------------------------------|
                                     . .


0:48 - 1:04 Guitar 1                       x4
---------------------------------------------|
---------------------------------------------|
---------------------------------------------|
---------------------------------------------|
-2--3-2-2/3-*----------2--3-2----------------|
-0--1-0-3/4-3--5-4-1-4-0--1-0-1/2-1--2p1-3/4-|
    . .        . . . .    . .

0:48 - 1:04 Guitar 2                       x4
---------------------------------------------|
---------------------------------------------|
---------------------------------------------|
---------------2-1---1-------------------0h1-|
-2--3-2-3/3-3------3---2--3-2--------3p2-----|
-0--1-0-2/4-2----------0--1-0-1/2-1----------|
    . .                   . .


- repeat 0:32 - 0:48 riff


1:20 Guitar 1
|--------------------------------
|--------------------------------
|--------------------------------
|--------------------------------
|-----1h2p1----------------------
|-4-3----------------------------
  . .

1:20 Guitar 2
|--------------------------------
|--------------------------------
|--------------------------------
|-1-0-3h4p3----------------------
|--------------------------------
|--------------------------------
  . .


1:21 - 1:39 Guitar 1
------------------------------------------------------------------------------
------------------------------------------------------------------------------
------------------------------------------------------------------------------
-----------------------------------4------------------------------------------
-7-----------------6-5-6-5-6-5-5/6-2------------------------3/4-3-3-----------
-------4--7----------3-4-3-4-3-3/4----0-0-0-4-0-4-4-4-4-1-0-1/2-1-1-----------
 """"""""""""""""""" . . . . .                                  . .  x4

1:21 - 1:39 Guitar 2
------------------------------------------------------------------------------
------------------------------------------------------------------------------
----------7\6-----------------------------------------------------------------
-9\8------5\44444448---------------4------------------------------------------
-7\6666666---------6-5-6-5-6-5-5/6-2------------------------3/4-3-3-----------
---------------------3-4-3-4-3-3/4----0-0-0-4-0-4-4-4-4-1-0-1/2-1-1-----------
    ......   ......  . . . . .                                  . .  x4


1:39 - 1:47 Guitar 1
------------------------------------------------------------------------------
------------------------------------------------------------------------------
------------------------------------------------------------------------------
------------------------------------------------------------------------------
-2-2-3-3-----2-2-4-4-0-0-3-3-3-3-2-2-3-3-----2-2-4-4-0-0-3-3-3-3--------------
---------4-4-----------------------------4-4----------------------------------
                                                                 x2

1:39 - 1:47 Guitar 2
------------------------------------------------------------------------------
------------------------------------------------------------------------------
-----------------2-2-----1-1-1-1-----------------2-2-----1-1-1-1--------------
-2-2-5-5-1-1-4-4-----3-3---------2-2-5-5-1-1-4-4-----3-3----------------------
------------------------------------------------------------------------------
------------------------------------------------------------------------------
                                                                 x2
- repeat 1:21 - 1:39 riff

                                                                   2:14
2:05 - 2:38                                                        bass fill
------------------------------------------------------------------|-----------
------------------------------------------------------------------|-----------
------------------------------------------------------------------|-----------
------------------------------------------------------------------|-----------
-5-6-4-5-4/5\4-4-3-4--3--4--*--5-6-4-5-4/5\4-4-5------------------|-4-3-------
-3-4-2-3-2/3\2-2-1-2--1--2--2--3-4-2-3-2/3\2-2-3-0-0-2h3-0-0-3h4--|-2-1-------
 . . . .       . . .  .  .     . . . .       . . . .     . .    x4  . .


2:38 - 3:04 [Under Solo]
------------------------------------------------------------------------------
------------------------------------------------------------------------------
----------------6--6b7r6-------------------6--6b7r6---------------------------
-2--5--4--2-----------------2--5--4--2--1-------------------------------------
-2--5--4--2--1-/4--4b5r4----2--5--4--2--1-/4--4b5r4---------------------------
------------------------------------------------------------------------------
                                                    x9

3:04 - 3:10 Guitar 1
------------------------------------------------------------------------------
------------------------------------------------------------------------------
------------------------------------------------------------------------------
------------------------------------------------------------------------------
-2-2-3-3-----2-2-4-4-0-0-3-3-3-3-2-2-3-3-----2-2-4-4-0-0-3-3-3-3--------------
---------4-4-----------------------------4-4----------------------------------
 . . . . . . . . . . . . . . . . . . . . . . . . . . . . . . . .

3:04 - 3:10 Guitar 2
------------------------------------------------------------------------------
------------------------------------------------------------------------------
-----------------2-2-----1-1-1-1-----------------2-2-----1-1-1-1--------------
-2-2-5-5-1-1-4-4-----3-3---------2-2-5-5-1-1-4-4-----3-3----------------------
------------------------------------------------------------------------------
------------------------------------------------------------------------------
 . . . . . . . . . . . . . . . . . . . . . . . . . . . . . . . .


3:10 - 3:13 Guitar 1
-----------------------------------------------------------
-----------------------------------------------------------
-----------------------------------------------------------
-----------------------------------------------------------
-2-2-3-3-----2-2-4-4-0-0-3-3-3-3-2-2-3-3-----2-2-4-4-0-0-3-
---------4-4-----------------------------4-4---------------
 . . . . . . . . . . . . . . . . . . . . . . . . . . . .

3:10 - 3:13 Guitar 2
-----------------------------------------------------------
-----------------------------------------------------------
-----------------2-2-----1-1-1-1-----------------2-2-----1-
-2-2-5-5-1-1-4-4-----3-3---------2-2-5-5-1-1-4-4-----3-3---
-----------------------------------------------------------
-----------------------------------------------------------
 . . . . . . . . . . . . . . . . . . . . . . . . . . . .


- play 0:01 - 0:32 riff
- play 0:48 - 1:04 riff
- play 0:32 - 0:48 riff
- play 1:21 - 1:39 riff
- play 1:39 - 1:47 riff
- then play 2:05 - 2:38 riff but @ 4:53 the part before the bass fill goes:

|------------------------------
|------------------------------
|------------------------------
|------------------------------
|-5-6-4-5-4/5\4-3-4------------
|-3-4-2-3-2-3-2-1-2------------
  . . . .       . . (bass fill)

  Visit MetalTabs.com for more metal tablature

bottom separator

Contact Us | Privacy Policy | Disclaimer | Legal Notice
Copyright © 2001-2014 MetalTabs.com. All Rights Reserved.