top separator

Home

Forum

What's New

Submit a Tab

FAQ

Links

Contact Us

Link to Us

MuSpy.com

MetalTabs.com logo

Bands

0-9

A

B

C

D

E

F

G

H

I

J

K

L

M

N

O

P

Q

R

S

T

U

V

W

X

Y

Z

Search

What

Where
 

Gorguts - "Condemned To Obscurity" Guitar Tab

Plain Text Version
More Gorguts Tabs

Hits: 3735
Rated: 5.00 out of 5 (5 votes)
Updated: 2007-03-12 23:14:05

 

By:

Sycophant

sendpm.gif

email.gif

Important note
This tab is available online because we obtained explicit permission from Gorguts or their label.


#----------------------------------PLEASE NOTE---------------------------------#
#This file is the author's own work and represents their interpretation of the #
#song. You may only use this file for private study, scholarship, or research. #
#Unless specified otherwise, this is NOT an official tab from the band members.#
#------------------------------------------------------------------------------#

  Visit MetalTabs.com for more metal tablature
  
Author/Artist: Gorguts
Title: Condemned To Obscurity
Album: The Erosion Of Sanity [1993 Roadrunner Records]
Transcribed by: Greg D. [Sycophant]
Email: sentience666@hotmail.com

Tune To C#
. = palm mutes
* = pinch harmonic
^ = natural harmonic
Tremelo pick where applicable.

            [Main Theme]
            0:40 - 1:00 Guitar 1
-----------|-----------------------------------------------------|------------
-----------|-----------*-*-----------------------*-*-------------|------------
-----------|-----------5-4---3---2---------------4-3---2---1-----|------------
-3---2-----|---2---------------------2---1---------------------1-|------------
-3---2---4-|-----3-2h3-----5---4---3-------2-1h2-----4---3---2---|------------
---------4-|-4-------------------------3-------------------------|------------
 .   .   .                                                        x4


            0:40 - 1:00 Guitar 2
-----------|-----------------------------------------------------|------------
-----------|-----------*-*---6---5---------------*-*-------------|------------
-----------|---4-------5-4---------7-4-7-8-------7-6---9---8---3-|------------
-3---2-----|-6---6-5h6-----7---6-----------5-4h5-----6---5---4---|------------
-3---2---4-|-----------------------------------------------------|------------
---------4-|-----------------------------------------------------|------------
 .   .   .                                                        x4


     1:00 - 1:21 [Verse]
---------|--------------------------------------------------------------------
---------|--------------------------------------------------------------------
---------|------*-------------------------------------------------------------
----1----|------3b4r3--------------3-3-3-3-2-2-2-2-5-5-5-5-2-2-2-2-5-/6-------
-2--1--4-|-3/4--------3/4-3/4-4-\5-4-4-4-4-0-0-0-0-3-3-3-3-0-0-0-0-5-/6-5-4-5-
-2-----4-|-1/2--------1/2-5/6-6-\3---------------------------------3-/4-3-2-3-
 .  .  .                                                                . . .

------------------------------------------------------------------------------
------------------------------------------------------------------------------
------------------------------------------------------------------------------
--------*----------------3-3-3-3-2-2-2-2-5-5-5-5-2-2-2-2-5-/6-----------------
-4-3/4--3---3/4-3/4-4-\5-4-4-4-4-0-0-0-0-3-3-3-3-0-0-0-0-5-/6-5-4-5-4---------
-2-1/2------1/2-5/6-6-\3---------------------------------3-/4-3-2-3-2---------
 .                                                            . . . .   x2


1:52 - 2:09 Guitar 1
---------------------------------------------------|
---------------------------------------------------|
---------------------------------------------------|
---------------------------------------------------|
-------------------------------------4---4---4-----|
-000-1-0-1-0-111133334444000011110000--2---2---2---|
 ... . . . .                         . . . . . . x7


1:52 - 2:09 Guitar 2
---------------------------------------------------|
---------------------------------------------------|
---------------------------------------------------|
---------------------------------------------------|
-------------------------------------6-3-6-3-6-3---|
-000-1-0-1-0-111133334444000011110000--------------|
 ... . . . .                         . . . . . . x7


2:09 - 2:14 Guitar 1
------------------------------------------------------------------------------
------------------------------------------------------------------------------
------------------------------------------------------------------------------
------------------------------------------------------------------------------
-2-3-2---2---2-3-2---2---1-2-1---1---1-2-1---1---2-3-2---2---2-3-2---2--------
-------4---4-------4---4-------3---3-------3---3-------4---4-------4---4------
 . . . . . . . . . . . . . . . . . . . . . . . . . . . . . . . . . . . .

2:09 - 2:14 Guitar 2
------------------------------------------------------------------------------
------------------------------------------------------------------------------
------------------------------------------------------------------------------
------------------------------------------------------------------------------
-6-7-6---6---6-7-6---6---5-6-5---5---5-6-5---5---6-7-6---6---6-7-6---6--------
-------8---8-------8---8-------8---8-------8---8-------8---8-------8---8------
 . . . . . . . . . . . . . . . . . . . . . . . . . . . . . . . . . . . .


2:14 - 2:26 [Chorus]
------------------------------------------------------------------------------
------------------------------------------------------------------------------
-------------------------------------------------^----------------------------
-------------------------------------------------3----------------------------
---------5555444422221111----1111--------5-4--------4/5-5/8-7--8--5--444-8-7--
-22223333----------------3333----22223333----1-0----2/3-3/6-5--6--3--222-6-5--
                                         . . . .               .  .  ... . .

                                                           2:30
-----------------|----------------------------------------|-------------------
-----------------|----------------------------------------|-------------------
-----------------|----------------------------------------|-------------------
-----------------|----------------------------------------|-------------------
-5-3-444-5-3-3-3-|----------------------------------------|-3----------4----3-
-3-1-222-3-1-1-1-|----------------------------------------|-1----------2----1-
 . . ... . . . .   then go back to 2:09 - 2:14 riff         .          .    .
                  repeat again, then move onto next section

2:32 - 3:00 Guitar 1
--------------------------------------------------------------------------------
--------------------------------------------------------------------------------
----------------------------------2-1-------------------------------------------
----------------------------1-2-1-----2---2-1-----------------------------------
2-3-2---3---2-3-2---2---1-2-------------3-----3-2-3-2---2---2-3-2---2---3---4-3-
------4---4-------4---4-------------------------------4---4-------4---4-1---2-1-
. . . . . . . . . . . . . .                   . . . . . . . . . . . . . .   . .

2:32 - 3:00
----------------------------------5-4-------------------------------------------
----------------------------4-5-4-----5---5-4-----------------------------------
------------------------3-4-------------5-----5-4-5-4---5---4-5-4---5-----------
4-5-4---4---4-5-4---4---------------------------------6---6-------6---6---------
------6---6-------6---6-------------------------------------------------3---4-3-
------------------------------------------------------------------------1---2-1-
. . . . . . . . . . . .                       . . . . . . . . . . . . . .   . .


Fill @ 2:45         Fill @ 2:45
Guitar 1            Guitar 2
-------------------|-------------------|
-------------------|----------*--------|
----------*--------|----4--5--5--------|
----------2--------|-------------------|
----2--3-----4--3--|-------------4--3--|
-------------2--1--|-------------2--1--|
             .  .                .  .


3:00 - 3:10 Guitar 1            end 1   end 2
------------------------------|-------|----------------------------------------
------------------------------|-------|----------------------------------------
------------------------------|-------|----------------------------------------
------------------------------|-------|----------------------------------------
-------5--4--2--1-----1-------|-4--3--|-4--3--4--5--4--3--4--3-----------------
-2--3--------------3-----2--3-|-2--1--|-2--1--2--3--2--1--2--1-----------------
                                .  .    .  .  .  .  .  .  .  .

3:00 - 3:10 Guitar 2            end 1    end 2
------------------------------|-------|----------------------------------------
------------------------------|-------|----------------------------------------
----------*-------------------|-------|----------------------------------------
-------7--6--4--3-----3-----*-|-------|----------------------------------------
-4--5--------------5-----4--5-|-4--3--|-4--3--4--5--4--3--4--3-----------------
------------------------------|-2--1--|-2--1--2--3--2--1--2--1-----------------
                                .  .    .  .  .  .  .  .  .  .

3:10 - 3:24 Guitar 1
------------------------------------------------------------------------------
------------------------------------------------------------------------------
------------------------------------------------------------------------------
--------------------------------------*---------------------------------------
---------2--1----------4--3--------5--4--2--1-----1-----*--4--3---------------
-2--3------------2--3--2--1--2--3--------------3-----2--3--2--1---------------
                       .  .                                .  .  x2

3:10 - 3:24 Guitar 2
------------------------------------------------------------------------------
------------------------------------------------------------------------------
--------------------------------------*---------------------------------------
----v-------v-------v--------------7--6--4--3-----3-----*---------------------
-4--5----5--4----1--2--4--3--4--5--------------5-----4--5--4--3---------------
-----------------------2--1--------------------------------2--1---------------
                       .  .                                .  .  x2

3:24 - 3:26
-------------------------|
-------------------------|
-------------------------|
-------------------------|
-4--3--4--5--4--3--4--2--|
-2--1--2--3--2--1--2--1--|
 .  .  .  .  .  .  .  .


3:26 - 3:39 Guitar 1
---------------------------------------------------|
---------------------------------------------------|
---------------------------------------------------|
---------------------------------------------------|
-------------------------------------4---4---4-----|
-000-1-0-1-0-111133334444000011110000--2---2---2---|
 ... . . . .                         . . . . . . x4


3:26 - 3:39 Guitar 2
---------------------------------------------------|
---------------------------------------------------|
---------------------------------------------------|
---------------------------------------------------|
-------------------------------------6-3-6-3-6-3---|
-000-1-0-1-0-111133334444000011110000--------------|
 ... . . . .                         . . . . . . x4


- Then repeat 2:14 - 2:26 riff


3:51 - 5:26 [with piano]
------------------------------------------------------------------------------
------------------------------------------------------------------------------
------------------------------------------------------------------------------
---------------------------------------------------------------3---2----------
-2-------------------------------------------------------------3---2---4------
-0---------------------------------------------------------------------4------
                                                               .   .   .
- back to 0:40 - 1:00 riff [Main Theme]
- then go to 1:00 - 1:21 riff [Verse]
- then go to 2:14 - 2:26 riff [Chorus]

  Visit MetalTabs.com for more metal tablature

bottom separator

Contact Us | Privacy Policy | Disclaimer | Legal Notice
Copyright © 2001-2014 MetalTabs.com. All Rights Reserved.