top separator

Home

Forum

What's New

Submit a Tab

FAQ

Links

Contact Us

Link to Us

MetalTabs.com logo

Bands

0-9

A

B

C

D

E

F

G

H

I

J

K

L

M

N

O

P

Q

R

S

T

U

V

W

X

Y

Z

Search

What

Where
 

Severe Torture - "Decomposing Bitch" Guitar Tab

Plain Text Version
More Severe Torture Tabs

Hits: 2303
Updated: 2007-03-12 23:10:06

 

By:

Malevolence

sendpm.gif

email.gif

Important note
This tab is available online because we obtained explicit permission from Severe Torture or their label.


#----------------------------------PLEASE NOTE---------------------------------#
#This file is the author's own work and represents their interpretation of the #
#song. You may only use this file for private study, scholarship, or research. #
#Unless specified otherwise, this is NOT an official tab from the band members.#
#------------------------------------------------------------------------------#

  Visit MetalTabs.com for more metal tablature
  
---DECOMPOSING BITCH---
       --By SEVERE TORTURE--
  -From The 2000 Album FEASTING ON BLOOD-

Tabbed By Scott Carlin
E-Mail: the_super_adventures@yahoo.ie

Tuning: Down 1 Step ( D G C F A D )

Intro a x1
||------------|------------|-------------||
||------------|------------|-------------||
||------------|------------|-------------|| GTR 1
||----3--2----|------------|-------------||
||-1--------4-|-3--4-----3-|-4-----0--1--||
||------------|-------2----|----2--------||
|  "  "  "  "   "  "  "  "   "  "  "  "   |
|                                         |
||------------|------------|-------------||
||------------|------------|-------------||
||------------|------------|-------------|| GTR 2
||-3--------6-|-5--6-----5-|-6-----2--3--||
||-1--------4-|-3--4--4--3-|-4--4--0--1--||
||------------|-------2----|----2--------||


Riff 1 x2
||------------|------------|------------|
||------------|------------|------------|
||------------|------------|------------|
||----3--2----|------------|------------|
||-1--------4-|-3--4-----3-|-4-----0--1-|
||------------|-------2----|----2-------|
   "  "  "  "   "  "  "  "   "  "  "  "

 ------------|------------|------------||
 ------------|------------|------------||
 ------------|------------|------------||
 ----3--2----|------------|-------4--5-||
 -1--------4-|-3--4-----3-|-4----------||
 ------------|-------2----|----2-------||
  "  "  "  "   "  "  "  "   "  "  "  "


Riff 2a x8
||---------|---------||
||---------|---------||
||---------|---------||
||---------|----4--5-||
||----3--4-|---------||
||-2-------|-2-------||
   "  "  "   "  "  "

Riff 1 x2
Riff 2 x4

Riff 2b x4
||---------|---------||
||---------|---------||
||---------|---------|| GTR 1
||---------|----4--5-||
||----3--4-|---------||
||-2-------|-2-------||
|  "  "  "   "  "  "  |
|                     |
||---------|---------||
||---------|---------||
||---------|----4--5-|| GTR 2
||---------|---------||
||----3--4-|---------||
||-2-------|-2-------||
   "  "  "   "  "  "
               _______________________________
Riff 3 x4     |  1 , 2 , 3   ||    4          |
||------------|--------------||--------------||
||------------|--------------||--------------||
||------------|--------------||--------------||
||------------|--------------||---------6----||
||-2-2-2------|-2-2-2-3p1p0--||-2-2-2-----5--||
||-0-0-0-1----|-0-0-0--------||-0-0-0-4------||
   . . . "      . . .           . . . .

Riff 4a x2
||----------------------|-----------------------||
||----------------------|-----------------------||
||----------------------|-----------------------||
||---------7----------7-|---------6----------6--||
||------6----------6----|------5----------5-----||
||-5----------5---------|-4----------4----------||
   "    "  "  "    "  "   "    "  "  "    "   "

Riff 4b x2
||----------------------|-----------------------||
||----------------------|-----------------------||
||----------------------|-----------------------||
||---------7----------7-|---------6----------6--||
||------6----------6----|------5----------5-----||
||-5----------5---------|-4----------4----------||
   "    "  "  "    "  "   "    "  "  "    "   "
   .    .  .  .    .  .   .    .  .  .    .   .

Riff 4a x2
Riff 4b x2

Intro b x1
||------------|------------|-------------||
||------------|------------|-------------||
||------------|------------|-------------|| GTR 2
||-3--------6-|-5--6-------|-------------||
||-1--------4-|-3--4--4--3-|-4-----0--1--||
||------------|-------2----|----2--------||
|                        "   "  "  "  "   |
||------------|------------|-------------||
||------------|------------|-------------||
||------------|------------|-------------|| GTR 2
||-3--------6-|-5--6-----5-|-6-----2--3--||
||-1--------4-|-3--4--4--3-|-4--4--0--1--||
||------------|-------2----|----2--------||

Riff 1 x2
Riff 2a x8
Riff 1 x2
Riff 2a x8

Riff 2c x2
||---------|---------||
||---------|---------||
||---------|---------||
||----4--5-|----8--9-||
||-4--2--3-|-5--6--7-||
||-2-------|-3-------||
   .  .  .   .  .  .

Riff 5 x6
||--------------|-----------||
||--------------|-----------||
||--------------|-----------||
||--------------|-----------||
||-6-4-6--6-4-6-|-6p4-4--7--||
||--------------|-----------||
   " " "  " " "   "   "  "

Riff 6 x8
||---------------|------------||
||---------------|------------||
||---------------|------------||
||---------------|------------||
||-6-----6-----6-|-----7-7-7--||
||---0-0---0-0---|-0-0--------||
     . .   . .     . .

Riff 5 x4
Riff 6 x8

                                     ____________________
Riff 7 x8                           | 1
||--------------|-------------------|-------------------||
||--------------|-------------------|-------------------||
||--------------|-------------------|-------------------||
||--------------|-------------------|-------------------||
||-5h8p5-6-5-4--|-7h8p7-7h8p7-7h8p7-|-6h7p6-6h7p6-6h7p6-||
||-------4-3-2--|-------------------|-------------------||
           .
 _____________________
|  2
||-------------------||
||-------------------||
||-------------------||
||-------------------||
||-8h9p8-8h9p8-8h9p8-||
||-------------------||


Riff 2d x2
||---------|-----------||
||---------|-----------||
||---------|-----------|| GTR 1
||---------|----4--5---||
||----3--4-|-----------||
||-2-------|-2---------||
|  "         "          |
|                       |
||---------|-----------||
||---------|-----------||
||---------|-----------|| GTR 2
||---------|-----------||
||-4-------|-4---------||
||-2-------|-2---------||


Riff 2a x6
Riff 2b x4
Riff 2a x4
Riff 4a x2
Riff 4b x2
Riff 4a x2
Riff 4b x2

ENDING x1
||--------|------------||
||--------|------------||
||--------|------------||
||-2----6-|-5--6--4----||
||-0----4-|-3--4--2----||
||--------|------------||

END

  Visit MetalTabs.com for more metal tablature

bottom separator

Contact Us | Privacy Policy | Disclaimer | Legal Notice
Copyright © 2001-2014 MetalTabs.com. All Rights Reserved.