#----------------------------------PLEASE NOTE---------------------------------#
#This file is the author's own work and represents their interpretation of the #
#song. You may only use this file for private study, scholarship, or research. #
#Unless specified otherwise, this is NOT an official tab from the band members.#
#------------------------------------------------------------------------------#

  Visit MetalTabs.com for more metal tablature
  
Ethereal Woods  In the Forest of Arden (Supernal Music)
Bass Tab

Mark Britton
etherealwoods@hotmail.com

Rhythm key:
0------- = a crotchet
0----- = a dotted quaver
0--- = a quaver
0- = a semiquaver

Tuning: Standard (EADG)

Time signature:
A and B 6/8
C to E 4/4

Riff A:

------------------------------------------------
------------------------------------------------
3-------3---3---3-------3-------3---3---3-------
------------------------------------------------

------------------------5-----------------------
3-------5-------6---------------6-------5-------
------------------------------------------------
------------------------------------------------

------------------------------------------------
------------------------------------------------
------------------------------------------------
1-------1---1---1-------4-------4---4---4-------


------------------------------------------------
------------------------------------------------
3-------3---3---3-------3-------3---3---3-------
------------------------------------------------

------------------------------------------------
5-------5---5---5-------6-------6---6---6-------
------------------------------------------------
------------------------------------------------

------------------------------------------------
------------------------------------------------
------------------------------------------------
1-------1---1---1-------4-------4---4---4-------


Riff B:

------------------------------------------------
------------------------------------------------
------------------------------------------------
1--------1---1---1------1-------1---1---1-------

------------------------------------------------
------------------------------------------------
------------------------------------------------
4--------4---4---4------4-------4---4---4-------


------------------------------------------------
------------------------------------------------
3--------3---3---3------3-------3---3---3-------
------------------------------------------------

------------------------------------------------
------------------------------------------------
6--------6---6---6------6-------6---6---6-------
------------------------------------------------

------------------------------------------------
------------------------------------------------
------------------------------------------------
1--------1---1---1------1-------1---1---1-------

------------------------------------------------
------------------------------------------------
------------------------------------------------
4--------4---4---4------4-------4---4---4-------


------------------------------------------------
------------------------------------------------
3--------3---3---3------3-------3---3---3-------
------------------------------------------------

------------------------------------------------
------------------------------------------------
11-------11--11--11-----11------11--11--11------
------------------------------------------------

Riff C:

----------------------------------------------------------------
----------------------------------------------------------------
----------------------------------------------------------------
3---3---3---3-3-6---6-6-5-5-6---2---2---2---2-2-0-0-0-0-2-2-2-2-

----------------------------------------------------------------
----------------------------------------------------------------
----------------------------------------------------------------
3---3---3---3-3-6---6-6-5-5-6---8---8---8---8-8-5-5-5-5-6-6-6-6-


Riff D:

----------------------------------------------------------------
----------------------------------------------------------------
3-3-3-3-3-3-3-3-3-3-3-3-3-3-3-3---------------------------------
--------------------------------4-4-4-4-4-4-4-4-4-4-4-4-4-4-4-4-

----------------------------------------------------------------
----------------------------------------------------------------
--------------------------------6-6-6-6-6-6-6-6-6-6-6-6-6-6-6-6-
1-1-1-1-1-1-1-1-1-1-1-1-1-1-1-1---------------------------------

Riff E:

----------------------------------------------------------------
----------------------------------------------------------------
3-----------------------3-------6-----------------------6-------
----------------------------------------------------------------

----------------------------------------------------------------
----------------------------------------------------------------
----------------------------------------------------------------
4-----------------------6-------3-------------------------------

----------------------------------------------------------------
----------------------------------------------------------------
3-----------------------3-------6-----------------------6-------
----------------------------------------------------------------

----------------------------------------------------------------
----------------------------------------------------------------
------------------------------------------------6---5-----------
4-----------------------6---3---2-----------2-----------6---5---

Structure:

A x 2
B x 2
A x 2
B x 2
C x 4
D x 4
C x 4
E x 4

  Visit MetalTabs.com for more metal tablature