top separator

Home

Forum

What's New

Submit a Tab

FAQ

Links

Contact Us

Link to Us

MetalTabs.com logo

Bands

0-9

A

B

C

D

E

F

G

H

I

J

K

L

M

N

O

P

Q

R

S

T

U

V

W

X

Y

Z

Search

What

Where
 

Rotting Christ - "The Sign of Evil Existence" Guitar Tab

Plain Text Version
More Rotting Christ Tabs

Hits: 2646
Rated: 5.00 out of 5 (2 votes)
Updated: 2007-03-05 02:04:42

 

By:

sendpm.gif

email.gif

Important note
This tab is available online because we obtained explicit permission from Rotting Christ or their label.


#----------------------------------PLEASE NOTE---------------------------------#
#This file is the author's own work and represents their interpretation of the #
#song. You may only use this file for private study, scholarship, or research. #
#Unless specified otherwise, this is NOT an official tab from the band members.#
#------------------------------------------------------------------------------#

  Visit MetalTabs.com for more metal tablature
  
Band:  Rotting Christ
Album: Thy Mighty Contract
Song:  The Sign of Evil Existence

Copyright (c)  Century Media Records 1993
Version 1.0 - 2/27/07

Transcribed By: Gleb Kanasevich
Email:          glebvic@yahoo.com


.  - palm mute           /  - slide up to
\  - slide down to       ~  - vibrato
h  - hammer on           b  - Bend
p  - pull off            Suffixes for bend
t  - tap                 f  - full bend    h - half bend
ph - pinched harmonic    q  - quarter bend t - tap bend
*  - see comment         ^  - Hold bend    r release bend
x  - Stuccatto           ~  - vibrato bend
,  - slight palm mute    () - ghost note, sustained note
"  - tremolo note        <> - Trill

Tuning E A D G B E

Intro (both guitars)
|--------------------|
|--------------------|
|--------------------|
|--------------------|
|--------------------|
|0"---0"---0"---0"---| x10
 .    .    .    .

|-------------------|
|-------------------|
|-------------------|
|---------------55--|
|---------------33--|
|0"---0"---0"---33--| x2
 .    .    .

Riff A (1st Verse) (x6)
|-------------------------------------------
|-------------------------------------------
|-------------------------------------------
|9999991010-9999991212-9999991010-9999------
|-------------------------------------101099
|-------------------------------------------
 ....... .  ....... .  ....... .  ..... . ..

|----------------------------------------|
|----------------------------------------|
|----------------------------------7/9-9-|
|----------------------------------7/9-9-|
|----101099------------------------5/7-7-|
|8888-------10101010101088-88888888------|
 ..... . .. . . . . . . .. ........

Riff B (Chorus) (x2)
|---------------------------------------------------|
|---------------------------------------------------|
|9-------------------14-----------------------------|
|9----7---5-------9/-14-9---------------------------|
|7--777-777-------9/-12-9-------------10"-10"-9"-7"-|
|0----------8"-8"-7/----7--7710-778-77--------------|
    ..  ..  .  .           ..   ..  ...   .   .  .

Riff C (2nd Verse) (x4)
|-------------------------------------------
|-------------------------------------------
|-------------------------------------------
|9999991010-9999991212-9999991010-9999------
|-------------------------------------101099
|-------------------------------------------
 ....... .  ....... .  ....... .  ..... . ..

|----------------------------------------|
|----------------------------------------|
|----------------------------------7/9-9-|
|----------------------------------7/9-9-|
|----101099------------------------5/7-7-|
|8888-------10101010101088-88888888------|
 ..... . .. . . . . . . .. ........

Riff D (Chorus) (x2)
|---------------------------------------------------|
|---------------------------------------------------|
|9-------------------14-----------------------------|
|9----7---5-------9/-14-9---------------------------|
|7--777-777-------9/-12-9-------------10"-10"-9"-7"-|
|0----------8"-8"-7/----7--7710-778-77--------------|
    ..  ..  .  .           ..   ..  ...   .   .  .

|----||
|----||
|----||
|2---||
|2---||
|0---||

END

  Visit MetalTabs.com for more metal tablature

bottom separator

Contact Us | Privacy Policy | Disclaimer | Legal Notice
Copyright © 2001-2014 MetalTabs.com. All Rights Reserved.