top separator

Home

Forum

What's New

Submit a Tab

FAQ

Links

Contact Us

Link to Us

MuSpy.com

MetalTabs.com logo

Bands

0-9

A

B

C

D

E

F

G

H

I

J

K

L

M

N

O

P

Q

R

S

T

U

V

W

X

Y

Z

Search

What

Where
 

Autopsy - "Charred Remains" Guitar Tab

Plain Text Version
More Autopsy Tabs

Hits: 1908
Rated: 3.00 out of 5 (1 vote)
Updated: 2007-03-05 01:53:25

 

By:

sendpm.gif

email.gif

Important note
This tab is available online because we obtained explicit permission from Autopsy or their label.


#----------------------------------PLEASE NOTE---------------------------------#
#This file is the author's own work and represents their interpretation of the #
#song. You may only use this file for private study, scholarship, or research. #
#Unless specified otherwise, this is NOT an official tab from the band members.#
#------------------------------------------------------------------------------#

  Visit MetalTabs.com for more metal tablature
  
Artist - Autopsy
Album - Severed Survival
Song - Charred Remains
Tabber - fraberjam

Note - The tuning is actually C standard, only one guitar track, sorry.

Riff 1
C#|-----------------||4x
G#|-----------------||
E |-----------------||
B |-----------------||
F#|-5---4---4---3---||
C#|---2---2---1---1-||

Riff 2
C#|-----------------||4x
G#|-----------------||
E |-----------------||
B |-----6-----------||
F#|-4---4---7---3---||
C#|-2-------5---1---||

Riff 3
C#|-----------------|-----------------|-----------------|-----------------||4x
G#|-----------------|-----------------|-----------------|-----------------||
E |-----------------|-----------------|-----------------|-----------------||
B |-----------------|-4-----------3/4-|-----------------|-6-----------3/4-||
F#|-5---------------|-2---5-------1/2-|-4---------------|-4---4-------1/2-||
C#|-3---------------|-----3-----------|-2---------------|-----2-----------||
                                                           

Riff 3a
C#|-----------------|-----------------||
G#|-----------------|-----------------||
E |-----------------|-----------------||
B |-----------------|-4-----------3/4-||
F#|-5---------------|-2---5-------1/2-||
C#|-3---------------|-----3-----------||
                         

Play Riff 1 - 4x
Play Riff 3 - 4x
Play Riff 3a

Lead Into Next Section
C#|-----------------||
G#|-----------------||
E |-----------------||
B |-----------------||
F#|-4---------------||
C#|-2---------------||

Riff 4
C#|-----------------|-----------------|-----------------|
G#|-----------------|-----------------|-----------------|
E |-----------------|-----------------|-----------------|
B |-----------------|-----------------|-----------------|
F#|-4---4-4-4-4-5---|-5-5-5-5-4---4-4-|-4-4-----5-------|
C#|-2---2-2-2-2-3---|-3-3-3-3-2---2-2-|-2-2-2-------3---|
        * * * *       * * * *     * *   * *
C#|-----------------|-----------------|-----------------|
G#|-----------------|-----------------|-----------------|
E |-----------------|-----------------|-----------------|
B |-----------------|-----------------|-----------------|
F#|-4---4-4-4-4-5---|-5-5-5-5-4---4-4-|-4-4-----5-------|
C#|-2---2-2-2-2-3---|-3-3-3-3-2---2-2-|-2-2-2-------3---|
        * * * *       * * * *     * *   * *
C#|-----------------|-----------------|-----------------||2x
G#|-----------------|-----------------|-----------------||
E |-----------------|-----------------|-----------------||
B |-----------------|-----------------|-----------------||
F#|-4---4-4-4-4-5---|-5-5-5-5-3---3-3-|-3-3-----3-------||
C#|-2---2-2-2-2-3---|-3-3-3-3-1---1-1-|-1-1-1-------4---||
        * * * *       * * * *     * *   * *

Riff 5      () = unknown if played, or how many times.
C#|-----------------|-----------------|-----------------|-----------------|
G#|-----------------|-----------------|-----------------|-----------------|
E |-----------------|-----------------|-----------------|-----------------|
B |-----------------|-3---------------|-----------------|-----------------|
F#|-4-------3---4---|-1---4---3---3-3-|-3-3-3---3-3-3-3-|-----------------|
C#|-2-------1---2---|-----2---1---1-1-|-1-1-1---1-1-1-1-|-0-0-0-0-0-0-0-0-|

C#|-----------------|-----------------|-----------------|----||
G#|-----------------|-----------------|-----------------|-4x-||
E |-----------------|-----------------|-----------------|----||
B |-----------------|-----------------|-----6-----------|----||
F#|---------4/5-----|-4/5-----4/5-----|-4---4---7---3---|----||
C#|-0-0-0-0-2/3-----|-2/3-----2/3-----|-2--(4)--5---1---|----||

Lead Into Next Section
C#|-----------------||
G#|-----------------||
E |-----------------||
B |-----------------||
F#|-----------------||
C#|-2-----------2h3-||
    ,

Riff 6
C#|-----------------|-----------------|-----------------|-----------------||
G#|-----------------|-----------------|-----------------|-----------------||
E |-----------------|-----------------|-----------------|-----------------||
B |-----------------|-----------------|-----------------|-----------------||
F#|-------------3p2-|-----------------|-----------------|-----------------||
C#|-1---------------|-4----------4h5--|-3-----------3h4-|-2-----------2h3-||
    ,                 ,                 ,                 ,

Riff 7
C#|-----------------|-----------------|-----------------|-----------------||3x
G#|-----------------|-----------------|-----------------|-----------------||
E |-----------------|-----------------|-----------------|-----------------||
B |-----------------|-----------------|-----------------|-----------------||
F#|-3-------------4-|-3-------------4-|-2---------------|-------------3---||
C#|-1---11111111112-|-1---11111111112-|-0---000000000000|-333333333333--4-||
        **********        **********        ************  ************

Riff 7a
C#|-----------------|-----------------|-----------------||
G#|-----------------|-----------------|-----------------||
E |-----------------|-----------------|-----------------||
B |-----------------|-----------------|-----------------||
F#|-3-------------4-|-3-------------4-|-2---------------||
C#|-1---11111111112-|-1---11111111112-|-0---000000000000||
        **********        **********        ************

Play Riff 3 - 5x

Riff 8
C#|-----------------|-----------------|-----------------|
G#|-----------------|-----------------|-----------------|
E |-----------------|-----------------|-----------------|
B |-----------------|-----------------|-----------------|
F#|-----------------|-----------------|-----------------|
C#|-2-----5-1-----4-|-0-----3-2-----5-|-1-----4-0-----3-|
    ,     , ,     ,   ,     , ,     ,   ,     , ,     ,
C#|-----------------|-----------------||
G#|-----------------|-----------------||
E |-----------------|-----------------||
B |-----------------|-----------------||
F#|-----------------|-2---------------||
C#|-2-----5-1-----4-|-0---------------||
    ,     , ,     ,

Outro
C#|---------------------|---------------------||6x
G#|---------------------|---------------------||
E |---------------------|---------------------||
B |---------------------|---------------------||
F#|---------------------|---------------------||
C#|-0---4---1---5---4---|-1---4---3---0---3h4-||

End
C#|-----------------||
G#|-----------------||
E |-----------------||
B |-----------------||
F#|-3---------------||
C#|-1---------------||

question/comments send me an e-mail

  Visit MetalTabs.com for more metal tablature

bottom separator

Contact Us | Privacy Policy | Disclaimer | Legal Notice
Copyright © 2001-2014 MetalTabs.com. All Rights Reserved.