top separator

Home

Forum

What's New

Submit a Tab

FAQ

Links

Contact Us

Link to Us

MuSpy.com

MetalTabs.com logo

Bands

0-9

A

B

C

D

E

F

G

H

I

J

K

L

M

N

O

P

Q

R

S

T

U

V

W

X

Y

Z

Search

What

Where
 

Exhorder - "Death In Vain" Guitar Tab

Plain Text Version
More Exhorder Tabs

Hits: 2759
Rated: 5.00 out of 5 (1 vote)
Updated: 2007-02-25 03:31:22

 

By:

Hidrio

sendpm.gif

email.gif

Important note
We did our best to reach Exhorder and ask for their permission to publish this tab. Unfortunately they did not respond to our requests or we could not find a way to contact them. This tab is available online until Exhorder tells us to take it down.


#----------------------------------PLEASE NOTE---------------------------------#
#This file is the author's own work and represents their interpretation of the #
#song. You may only use this file for private study, scholarship, or research. #
#Unless specified otherwise, this is NOT an official tab from the band members.#
#------------------------------------------------------------------------------#

  Visit MetalTabs.com for more metal tablature
  
Band:  Exhorder
Album: Slaughter In The Vatican
Song:  Death In Vain

Copyright (c)  Roadrunner (1990)
Version 1.0 -  21/2/07

Transcribed By: Ryan
Email:          ryanhidrio@hotmail.com


.  - palm mute           /  - slide up to
\  - slide down to       ~  - vibrato
h  - hammer on           b  - Bend
p  - pull off            Suffixes for bend
t  - tap                 f  - full bend    h - half bend
ph - pinched harmonic    q  - quarter bend t - tap bend
*  - see comment         ^  - Hold bend    r release bend
x  - Staccato            ~  - vibrato bend
,  - slight palm mute    () - ghost note, sustained note
"  - tremolo note        tr - Trill


Tuning D G C F A D



(0:00 - 1:01) - Intro Noises


1:04
|-----------------------------------------------------------------|
|-----------------------------------------------------------------|
|-----------------------------------------------------------------|
|-----------------------------------------------------------------|
|-2-------10--9-----------9---8-----------8---7-----------4---4-5-|
|\0-0-000-8-0-7-0-0-0-000-7-0-6-0-0-0-000-6-0-5-0-333-333-2-0-2-3-|
    . ...   .   .   . ...   .   . . . ...   .   . ... ...   .


1:12
|-----------------------------|
|-----------------------------|
|-----------------------------|
|-------------9-----------10--|
|-2-------2---7---8---9---8---|
|-0-0-000-0-------6---7-------|
    . ...


1:15
|-----------------------------------------------------------------|
|-----------------------------------------------------------------|
|-----------------------------------------------------------------|
|-----------------------------------------------------------------|
|---------10--9-----------9---8-----------8---7-----------4---4-5-|
|-0-0-000-8-0-7-000-0-000-7-0-6-000-0-000-6-0-5-0-333-333-2-0-2-3-|   x2
  . . ...   .   ... . ...   .   ... . ...   .   . ... ...   .


1:28
|-----------------|
|-----------------|
|-----------------|
|-9\--3---4---10--|
|-7\--1---2---8---|
|-----------------|



1:30
|-----------------------------------------------------------------|
|-----------------------------------------------------------------|
|-----------------------------------------------------------------|
|-------------------------------------------------7-6-5-4-10------|
|---------5---4/5---------5---4\3---------5---4/5-5-4-3-2-8-109-8-|
|-000000003-002/3-000000003-002\1-000000003-002/3-----------8-7-6-|   x3
  ........  ..    ........  ..    ........  ..


1:50
|---------------------------------|
|---------------------------------|
|---------------------------------|
|-9-------------------------------|
|-7---8---9---4---5---10--9---8---|
|-----6---7---2---3---8---7---6---|



1:53
|-----------------------------------------------------------------|
|-----------------------------------------------------------------|
|-----------------------------------------------------------------|
|--------------1010----------------------------107-7-------4------|
|---------10p0-8-8--------7-----8---------10p0-8\5-5-------2---3--|
|-00000000---------0-00000--5-6---00000000-----------3-4-0---0-1--|   x2
  ........         . .....  . .   ........           . . .   .


2:02
|-----------------------------------------------------------------|
|-----------------------------------------------------------------|
|-----------------------------------------------------------------|
|-----------------------------------------------------------------|
|-------------------------10--108-----------------------------3---|
|-000000003-6---3-0-0000008---8\6-000000003-6---3-0000000000001---|   x2
  .........       . ......        .........       ............


2:11
|-----------------------------------------------------------------|
|-----------------------------------------------------------------|
|-----------------------------------------------------------------|
|-----------------------------9-9---------------------------------|
|---------5---4/5---------5---7-7---------5---4/5-------3/7-------|
|-000000003-0-2/3-000000003-0-----000000003-0-2/3-000000----8-7-6-|   x2
  ........  .     ........  .     ........  .     ......


2:18
|-----------------------------------------------------------------|
|-----------------------------------------------------------------|
|-----------------------------------------------------------------|
|-----------------------------------------------------------------|
|-------------------------10--108-----------------------------3-3-|
|-000000003-6---3-0-0000008---8\6-000000003-6---3-0000000000001-1-|
  .........       . ......        .........       ............


|-----------------------------------------------------------------|
|-----------------------------------------------------------------|
|-----------------------------------------------------------------|
|-----------------------------------------------------------------|
|-------------------------10--108-----------------------------3---|
|-000000003-6---3-0-0000008---8\6-000000003-6---3-0000000000001---|
  .........       . ......        .........       ............



Repeat part - 2:11   x2



2:34 (Not 100& sure, but it sounds OK at the correct speed
      ...and those 1's are 10's)
|---------------------------------|
|---------------------------------|
|---------------------------------|
|---------------------------------|
|-9-------10------11--77--9-7-5---|
|-7-7777778-77777788--55--7-5-3---|   x3
    ......  ......


2:39
|---------------------------------|
|---------------------------------|
|---------------------------------|
|---------------------------------|
|-9-------10------10--9---5---3---|
|-7-7777778-7777778---7---3---1---|
    ......  ......


2:41  (Blast beats)
|-----------------|
|-----------------|
|-----------------|
|-9-----------10--|
|-7---8---9---8---|
|-----6---7-------|



2:42
|-----------------------------------------------------------------|
|-----------------------------------------------------------------|
|-----------------------------------------------------------------|
|-----------------------------------------------------5/7---3-----|
|-----------2---3---------333-222---------222-333---5-3/5-0-1---3-|
|-2222222222------22222222--------22222222--------0-3---------0-1-|
  ..........      ........        ........        . .     .


|-----------------------------------------------------------------|
|-----------------------------------------------------------------|
|-----------------------------------------------------------------|
|-----------------------------------------------------------------|
|---------222-333---------333-222---------222-333-4/5---4---3---3-|
|-22222222--------22222222--------22222222--------2/3-0-2-0-1---1-|
  ........        ........        ........            .   .


|-----------------------------------------------------------------|
|-----------------------------------------------------------------|
|-----------------------------------------------------------------|
|-----------------------------------------------------5/7---3-----|
|---------222-333---------333-222---------222-333---5-3/5-0-1---3-|
|-22222222--------22222222--------22222222--------0-3---------0-1-|
  ........        ........        ........        . .     .


|--------------------------------------------------|
|--------------------------------------------------|
|--------------------------------------------------|
|--------------------------------------------------|
|---------222-333---------333-222---------222-333--|
|-22222222--------22222222--------22222222---------|
  ........        ........        ........


2:56
|-------------------------------------------------------------------|
|-------------------------------------------------------------------|
|-------------------------------------------------------------------|
|-------------------------------------------------------------------|
|-4/5-------54----4/5-------54----4/5-------54--------------2/5\2/3-|
|-2/3-00000032001-2/3-00000032001-2/3-00000032001-0-0-0-4-0---------|
      ...........     ...........     ........... . . . . .


|-------------------------------------------------------------------|
|-------------------------------------------------------------------|
|-------------------------------------------------------------------|
|-------------------------------------------------------------------|
|-4/5-------54----4/5-------54----4/5-------------12\-----------4---|
|-2/3-00000032001-2/3-00000032001-2/3-0000000000--10\-----------2-0-|
      ...........     ...........     ..........


3:04
|-------------------------------------------------------------------|
|-------------------------------------------------------------------|
|-------------------------------------------------------------------|
|-------------------------------------------------------------------|
|-4/5-------54----4/5-------54----4/5-------54--------------2/5\2/3-|
|-2/3-0000003200002/3-0000003200002/3-0000003200000-0-0-4-0---------|
      ............    ............    ............. . . . .


|-------------------------------------------------------------------|
|-------------------------------------------------------------------|
|-------------------------------------------------------------------|
|-------------------------------------------------------------------|
|-4/5-------54----4/5-------54----4/5-------54------------4\2/4\2/4-|
|-2/3-0000003200002/3-0000003200002/3-0000003200000-0-0-4-----------|
      ............    ............    ............. . . .


|-------------------------------------------------------------------|
|-------------------------------------------------------------------|
|-------------------------------------------------------------------|
|-------------------------------------------------------------------|
|-4/5-------54----4/5-------54----4/5-------54--------------2/5\2/3-|
|-2/3-0000003200002/3-0000003200002/3-0000003200000-0-0-4-0---------|
      ............    ............    ............. . . . .


|-----------------------------------------------------------------|
|-----------------------------------------------------------------|
|-----------------------------------------------------------------|
|-----------------------------------------------------------------|
|-4/5-------54----4/5-------54----4/5-------54--------------2/5\2-|
|-2/3-0000003200002/3-0000003200002/3-0000003200000-0-0-4-0-------|
      ............    ............    ............. . . . .


3:20
|-----------------------------------------------------------------|
|-----------------------------------------------------------------|
|----------------------------<5>\/\/\/\/\/\/\/\/\---------\\\\\\\-|
|-5---------------------------------------------------------------|
|-3---------------------------------------------------------------|
|-----------------------------------------------------------------|



3:27
|-----------------------------------------------------------------|
|-----------------------------------------------------------------|
|-----------------------------------------------------------------|
|-109-------------------------------------------------------------|
|-8\7---8\7/109\8-----------------3-----109\8\7---3---------------|
|-----0-6\5/8\7\6-0-0-000-0-0-000-1-0-0-8\7\6\5-0-1-1-111-1-1-111-|
      .           . . ...   . ...   . .         .   . ...   . ...


|-----------------------------------------------------------------|
|-----------------------------------------------------------------|
|-----------------------------------------------------------------|
|-109-----------------------------109-----------------5-7---------|
|-8\7---8\7/109\8-----------------8\7---8\7/109\8-2-5-3-5-7-8-----|
|-----0-6\5/8\7\6-0-0-000-0-0-000-----0-6\5/8\7\6-0-3-----5-6-000-|
      .           . . ...   . ...     .           . .         ...


|-----------------------------------------------------------------|
|-----------------------------------------------------------------|
|-----------------------------------------------------------------|
|-109-------------------------------------------------------------|
|-8\7---8\7/109\8-----------------3-----109\8\7---3---------------|
|-----0-6\5/8\7\6-0-0-000-0-0-000-1-0-0-8\7\6\5-0-1-1-111-1-1-111-|
      .           . . ...   . ...   . .         .   . ...   . ...

                                                                2nd
|-------------------------------------------------------------|-----|
|-------------------------------------------------------------|-----|
|-------------------------------------------------------------|-----|
|-109-----------------------------109-----------------5-7-----|-----|
|-8\7---8\7/109\8-----------------8\7---8\7/109\8-2-5-3-5-7-8-|-----|
|-----0-6\5/8\7\6-0-0-000-0-0-000-----0-6\5/8\7\6-0-3-----5-6-|-000-|
      .           . . ...   . ...     .           . .


3:55
|------------------|
|------------------|
|------------------|
|------------------|
|------------------|
|-0-0-000-000-15\\-|
  . . ... ...



Repeat part - 3:27 with "2nd"



4:23
|-----------------|
|-----------------|
|-109-------------|
|-------8-7-109-8-|
|-8-7-------------|
|-----0-6-5-8-7-6-|



4:25
|-----------------------------------------------------------------|
|-----------------------------------------------------------------|
|-----------------------------------------------------------------|
|-----------------------------------------------------5/7-2-3-----|
|---------2---3-----------3---2-----------2---3-----5-3/5-0-1---3-|
|-222-222---2---0-222-222---2---0-222-222---2---2-0-3---------0-1-|
  ... ...   .   . ... ...   .   . ... ...   .   . . .


|-----------------------------------------------------------------|
|-----------------------------------------------------------------|
|-----------------------------------------------------------------|
|-----------------------------------------------------------------|
|---------2---3-----------3---2-----------2---3---4/5---4---3-----|
|-222-222---2---0-222-222---2---0-222-222---2---0-2/3-0-2-0-1-----|   x2
  ... ...   .   . ... ...   .   . ... ...   .   .     .   .


4:51
|-----------------------------------------------------------------|
|-----------------------------------------------------------------|
|-----------------------------------------------------------------|
|--------------1010----------------------------107-7-------4------|
|---------10p0-8-8--------7-----8---------10p0-8\5-5-------2---3--|
|-00000000---------0-00000--5-6---00000000-----------3-4-0---0-1--|
  ........         . .....  . .   ........           . . .   .


4:56 (Under solo)
|-----------------------------------------------------------------|
|-----------------------------------------------------------------|
|-----------------------------------------------------------------|
|-----------------------------------------------------------------|
|--------------------------------------------------------/7-------|
|-0000000000000000333333333333333322222222222222221111111---8-7-6-|



|-----------------------------------------------------------------|
|-----------------------------------------------------------------|
|-----------------------------------------------------------------|
|-----------------------------------------------------------------|
|-777777777777777710101010101010109999999999999999888888887-------|
|-----------------------------------------------------------8-7-6-|



|-----------------------------------------------------------------|
|-----------------------------------------------------------------|
|-----------------------------------------------------------------|
|-----------------9999999999999999888888888888888877777777--------|
|-7777777777777777----------------------------------------7-------|
|-----------------------------------------------------------8-7-6-|



|-----------------------------------------------------------------|
|-----------------------------------------------------------------|
|-----------------------------------------------------------------|
|-----------------------------------------------------------------|
|-777777777777777710101010101010109999999999999999888888887-------|
|-----------------------------------------------------------8-7-6-|



|-------------------------|
|-------------------------|
|-------------------------|
|-------------------------|
|-6-------5-------4-------|
|---7-6-5---6-5-4---5-4-3-|



5:12
|-----------------------------------------------------------------|
|-----------------------------------------------------------------|
|-----------------------------------------------------------------|
|-----------------------------------------------------5/7---3-----|
|---------222-333---------333-222---------222-333---5-3/5---1---3-|
|-22222222--------22222222--------22222222--------0-3-----0---0-1-|
  ........        ........        ........        . .     .


|-----------------------------------------------------------------|
|-----------------------------------------------------------------|
|-----------------------------------------------------------------|
|-----------------------------------------------------------------|
|---------222-333---------333-222---------222-333-4/5---4---3---3-|
|-22222222--------22222222--------22222222--------2/3-0-2-0-1---1-|
  ........        ........        ........            .   .


|-----------------------------------------------------------------|
|-----------------------------------------------------------------|
|-----------------------------------------------------------------|
|-----------------------------------------------------5/7---3-----|
|---------222-333---------333-222---------222-333---5-3/5---1---3-|
|-22222222--------22222222--------22222222--------0-3-----0---0-1-|
  ........        ........        ........        . .     .


|----------------------------------------------------------------------|
|----------------------------------------------------------------------|
|----------------------------------------------------------------------|
|----------------------------------------------------------------------|
|---------222-333---------333-222---------222-333-4/5---5---4---3-3----|
|-22222222--------22222222--------22222222--------2/3-0-3-0-2-0-1-1----|
  ........        ........        ........            .   .   .


|---------------------------|
|---------------------------|
|---------------------------|
|---------------------------|
|-----------------2-3-4-3-2-|
|-11111111111111110-1-2-1-0-|
  ................


END

  Visit MetalTabs.com for more metal tablature

bottom separator

Contact Us | Privacy Policy | Disclaimer | Legal Notice
Copyright © 2001-2014 MetalTabs.com. All Rights Reserved.