top separator

Home

Forum

What's New

Submit a Tab

FAQ

Links

Contact Us

Link to Us

MuSpy.com

MetalTabs.com logo

Bands

0-9

A

B

C

D

E

F

G

H

I

J

K

L

M

N

O

P

Q

R

S

T

U

V

W

X

Y

Z

Search

What

Where
 

Ethereal Woods - "The Curse of the Modern World" Bass Tab

Plain Text Version
More Ethereal Woods Tabs

Hits: 1209
Updated: 2007-03-05 01:46:39

 

By:

excarnator

sendpm.gif

email.gif

Important note
This tab is available online because we obtained explicit permission from Ethereal Woods or their label.


#----------------------------------PLEASE NOTE---------------------------------#
#This file is the author's own work and represents their interpretation of the #
#song. You may only use this file for private study, scholarship, or research. #
#Unless specified otherwise, this is NOT an official tab from the band members.#
#------------------------------------------------------------------------------#

  Visit MetalTabs.com for more metal tablature
  
Ethereal Woods  The Curse of the Modern World
Bass Tab
Mark Britton etherealwoods@hotmail.com

This is quite an easy song in terms of the fret work but the strumming patterns
are a trifle odd.
I hope it's correct because I wrote it.

Time signature: 4/4

Rhythm key:
0------- = a crotchet
0----- = a dotted quaver
0--- = a quaver
0- = a semiquaver

Tuning: Standard (EADG)

Riff A

----------------------------------------------------------------
----------------------------------------------------------------
--------------------------------5-5-5-5-5-5-5-5-8-8-8-8-7-7-7-7
0-0-0-0-0-0-0-0-0-0-0-0-0-0-0-0---------------------------------

Riff B

----------------------------------------------------------------
----------------------------------------------------------------
----------------------------------------------------------------
3---3-----3-----3-3-3---3---3-3-2---2-----2-----2-2-2---2---2-2-

----------------------------------------------------------------
----------------------------------------------------------------
----------------------------------------------------------------
1---1-----1-----1-1-1---1---1-1-4---4-----4-----1-1-1---1---1-1-

(Then repeat but change the last three 1s to 4s)

Riff C

----------------------------------------------------------------
----------------------------------------------------------------
5---5---5---5-------------------6---6---6---6-6-6-6-6---6---6-6-
----------------1---1---1---1-----------------------------------

Riff D

---------------------------------------------------------------
---------------------------------------------------------------
5---5-----5-----5-5-5---5---5-5--------------------------------
--------------------------------6---6-----6-----6-6-6---5---5-5

The strumming pattern for D is the same as for B.

Riff E

----------------------------------------------------------------
----------------------------------------------------------------
------------------------------------------------5---5-5---5-5-5-
3---3-3---3-3-3-3---3-3---3-3-3-7---7-7---7-7-7-----------------

----------------------------------------------------------------
----------------------------------------------------------------
------------------------------------------------5---------------
3---3-3---3-3-3-3---3-3---3-3-3-7---7-7---7-7-7-----8---7---8---

End on an open E.

Structure:

A x 8
B x 2
A x 4
C x 8
D x 4
E x 4
D x 4
E x 4
A x 4

  Visit MetalTabs.com for more metal tablature

bottom separator

Contact Us | Privacy Policy | Disclaimer | Legal Notice
Copyright © 2001-2014 MetalTabs.com. All Rights Reserved.