top separator

Home

Forum

What's New

Submit a Tab

FAQ

Links

Contact Us

Link to Us

MetalTabs.com logo

Bands

0-9

A

B

C

D

E

F

G

H

I

J

K

L

M

N

O

P

Q

R

S

T

U

V

W

X

Y

Z

Search

What

Where
 

Decapitated - "Perfect Dehumanisation (The Answer?)" Guitar Tab

Plain Text Version
More Decapitated Tabs

Hits: 3365
Rated: 4.20 out of 5 (5 votes)
Updated: 2007-02-25 03:22:07

 

By:

sendpm.gif

email.gif

Important note
This tab is available online because we obtained explicit permission from Decapitated or their label.


#----------------------------------PLEASE NOTE---------------------------------#
#This file is the author's own work and represents their interpretation of the #
#song. You may only use this file for private study, scholarship, or research. #
#Unless specified otherwise, this is NOT an official tab from the band members.#
#------------------------------------------------------------------------------#

  Visit MetalTabs.com for more metal tablature
  
Band: Decapitated
Album: Nihility
Song: Perfect Dehumanisation (The Answer?)
Record Label: Earache
Tuning: D G C F A D


h - hammer on
p - pull off
r - release bend
/ - slide up
\ - slide down
~ - vibrato
. - palm mute



------
------
------
------
-2-22-
-0-00-
   ..

1.

------------------------------------------------------
------------------------------------------------------
------------------------------------------------------
------------------4--------------------------4--------
-----3333---------2-------------3333---------2-5/6-22-
-1111----33334444---333344441111----33334444-2-3/4-00-
                                                   ..

---------------------------------------------------
---------------------------------------------------
------------------4--------------------------------
---------------------------------------------------
-----3333---------2-------------3333--------3333-2-
-1111----33334444---333344441111----33334444-----0-


------------------------------------------------------
------------------------------------------------------
------------------------------------------------------
------------------4--------------------------4--------
-----3333---------2-------------3333---------2-5/6-22-
-1111----33334444---333344441111----33334444-2-3/4-00-
                                                   ..

------------------------------------------------------
------------------------------------------------------
------------------4-----------------------------------
------------------------------------------------------
-----3333---------2-------------3333--------3333-2-22-
-1111----33334444---333344441111----33334444-----0-00-
                                                   ..

------------------------------------------------------
------------------------------------------------------
------------------4-----------------------------------
---------------------------------------------4--------
-----3333---------2-------------3333---------2-5/6-22-
-1111----33334444---333344441111----33334444-2-3/4-00-
                                                   ..


---------------------------------------------------
---------------------------------------------------
------------------4--------------------------------
---------------------------------------------------
-----3333---------2-------------3333--------3333-2-
-1111----33334444---333344441111----33334444-----0-



------------------------------------------------------
------------------------------------------------------
------------------4-----------------------------------
---------------------------------------------4--------
-----3333---------2-------------3333---------2-5/6-22-
-1111----33334444---333344441111----33334444-2-3/4-00-
                                                   ..

--------------------------------------------------------------
--------------------------------------------------------------
------------------4-----------------------------------------5-
-------------------------------------------------9-7-6--------
-----3333---------2-------------3333--------2222-7-5-4-3333-3-
-1111----33334444---333344441111----33334444-----0-5-4--------
                                        ........       ....

2nd guitar plays the same riff but in triplets:

-------------------------
-------------------------
-------------4-----------
-------------------------
----333------2-----------
-111---333444--333444111-  etc...
 ............

and ends like this:

-----------------
-----------------
----10-9-------8-
-9---------------
-7--8--7--6666-6-
-0---------------
          ....

2.

------------------------------------------------------
------------------------------------------------------
------------------------------------------------------
-2-2---------2--------------2-2---------------------6-
--3-3---------1-----4\3------3-3---------4----------4-
-----44444444--3333-4\3-0-3-----4444-0-3-4-33333333-4-
 ....        ..       . . . ....     . . . ........

---------------------------------------------------|---
---------------------------------------------------|---
---------------------------------------------------|---
-2-2---------2------------------4/5-3-5-4-4/5-3-4--|-3-
--3-3---------1-----------------2/3-1-3-2-2/3-1-2--|-1-
-----44444444--3333-4\3-0-3-4-3-2/3-1-3-2-2/3-1-2--|-1-
 ....        ..         . . . .     . . .     .


3.

-----------------------------------------
-----------------------------------------
--------7-6-5--------------7-6-5---------
-5-4---6---7-6----5---4---6---7-6--------
--6-5-5-------5-4--6-6-5-5-------------7-
-----4---------6-5------4---------6666-5-
  ......   ....... ... ....   ... ....

2nd guitar plays the same riff (except last note which is -8-)3 halfsteps higher
3rd guitar plays the same riff as 2nd guitar but 3 halfsteps higher


---------
---------
---------
---------
---------
--4--3-4-
  .  . .


4.

----------------------------------------------------------
----------------------------------------------------------
------------------4/5\4-----------------------4/5\4-3/4\3-
----------------------------------------------------------  Gtr 1
------3333--------2/3\2hold------3333---------2/3\2-1/2\1-
--1111----33334444-----------1111----33334444-------------


----------------------------------------------------------
----------------------------------------------------------
------------------4/5\4-----------------------------------
------------------------5/6-------------------5/6\5-4/5\4-  Gtr 2
------3333--------2/3\2----------3333---------------------
--1111----33334444------3/4--1111----33334444-3/4\3-2/3\2-


5.

-------------------------------------
-------------------------------------
-------------------------------------
-------------------------------------
-3--5-4--3-5--4-5--------------------
-1--3-2--1-3--2-3--111333222333-2323-
              . .               ....

-------------------------------------
-------------------------------------
-------------------------------------
-------------------------------------
-3--5-4--3-5--4-5--------------------
-1--3-2--1-3--2-3--111333222333-2323-
                                ....


Repeat part 1, 2 and 3



6.Under solo

------------------------------------------------
------------------------------------------------
------------------------------------------------
------------------------------------------------
-----3--2-2-2-----------------------------------
-1-3-1--0-0-0---6-0-3-5-6-0-6-0-3-5-6-0-3-6-0-3-
 . .      .     . . . . . . . . . . . . . . . .

------------------------------------------------
------------------------------------------------
------------------------------------------------
------------------------------------------------
-----3--2-2-2-----------------------------------
-1-3-1--0-0-0---1-0-1-3-4-0-4-0-1-3-4-3-4-3-1-0-
 . .      .     . . . . . . . . . . . . . . . .

---------------|------|-------
---------------|------|-------
---------------|------|-------
---------------|------|-3-3~--
-----3--2-2-2--|-3-3~-|-------
-1-3-1--0-0-0--|------|-------
 . .      .     Gtr 1   Gtr 2



7.Solo


-17h19p17-16-17-16h17p16--16-----------------------------------------
------------------------18--17-18-15h17p15--15-----------------------
------------------------------------------17--16-17-14-16-13h14p13---
------------------------------------------------------------------15-
---------------------------------------------------------------------
---------------------------------------------------------------------

---------------------------------
---------------------------------
-13------------------------------
---14-15-12h14p12--12------------
-----------------15--14-15-12-14-
---------------------------------

----------------------------------------------------------------------
----------------------------------------------------------------------
-----------------------------------------------------------------14---
---------------------------------------10-12-14-15-14-15-12-14-15--15-
-11-12-11--11--------------12--11-12-14-------------------------------
---------13--13-12-10-12-13--13---------------------------------------

-----------------------------
---------15-17-18-17-15------
-13-14-16--------------17-16~
-----------------------------
-----------------------------
-----------------------------

-----------------------------------------------------------
------------------------------------------15---------------
-14h16p14-13-14-13-------16-17-16-14-16-17--17-16-14-16-17-
------------------15-14~-----------------------------------
-----------------------------------------------------------
-----------------------------------------------------------

------------------16-----16-17--16-17-
-15-17-18-15-17-18--17-18-----18------
--------------------------------------
--------------------------------------
--------------------------------------
--------------------------------------


-17/19-19\17-17h19p17-16-17-16-17-16------------------
------------------------------------18-17~-------/24~-
------------------------------------------------------
------------------------------------------------------
------------------------------------------------------
------------------------------------------------------


Repeat part 5 and 4


8.

----------------------------------------------------------
----------------------------------------------------------
------------------4/5\4-----------------------4/5\4-3/4\3-
----------------------------------------------------------  Gtr 1
-------3----------2/3\2hold------3------------2/3\2-1/2\1-
--1111----3333-4-------------1111----3333-4---------------
  .... .  .... .             .... .  .... .

----------------------------------------------------------
----------------------------------------------------------
------------------4/5\4-----------------------------------
------------------------5/6-------------------5/6\5-4/5\4-  Gtr 2
-------3----------2/3\2-----------3-----------------------
--1111----3333-4--------3/4--1111----3333-4---3/4\3-2/3\2-
  .... .  .... .             .... .  .... .


Repeat part 4


9.Ending

-----------------------------
-----------------------------
-6/7\6--5/6\5--8/9\8--7/8\7\-
-----------------------------  Gtr 1
-4/5\4--3/4\3--6/7\6--5/6\5\-
-----------------------------

------------------------------
------------------------------
------------------------------
-7/8\7--6/7\6--9/10\9--8/9\8\ Gtr 2
------------------------------
-5/6\5--4/5\4--7/8\-7--6/7\6\-


By Axegorrr

Any corrections: axegorrr@o2.pl

  Visit MetalTabs.com for more metal tablature

bottom separator

Contact Us | Privacy Policy | Disclaimer | Legal Notice
Copyright © 2001-2014 MetalTabs.com. All Rights Reserved.