top separator

Home

Forum

What's New

Submit a Tab

FAQ

Links

Contact Us

Link to Us

MuSpy.com

MetalTabs.com logo

Bands

0-9

A

B

C

D

E

F

G

H

I

J

K

L

M

N

O

P

Q

R

S

T

U

V

W

X

Y

Z

Search

What

Where
 

Toxic Holocaust - "Hell On Earth" Guitar Tab

Plain Text Version
More Toxic Holocaust Tabs

Hits: 3944
Rated: 4.71 out of 5 (7 votes)
Updated: 2007-02-25 03:18:28

 

By:

Wolfsherz

sendpm.gif

email.gif

Important note
This tab is available online because we obtained explicit permission from Toxic Holocaust or their label.


#----------------------------------PLEASE NOTE---------------------------------#
#This file is the author's own work and represents their interpretation of the #
#song. You may only use this file for private study, scholarship, or research. #
#Unless specified otherwise, this is NOT an official tab from the band members.#
#------------------------------------------------------------------------------#

  Visit MetalTabs.com for more metal tablature
  
Band:  Toxic Holocaust
Album: Hell on Earth
Song:  Hell on Earth

Copyright (c)  Nuclear War Now! 2005

Transcribed By: Wolfsherz/Jens Cautereels
Email:          cautereels.jens@gmail.com

Tuning: EADGBe

e ---------------------------------------------------------------
B ---------------------------------------------------------------
G ---------------------------------------------------------------
D -7-----------------------------7-------------------------------
A -7-----------------------------7-------------------------------
E -5-----------------------------5-------------------------------
     ......   ......   ......
e ---------------------------------------------------------------
B ---------------------------------------------------------------
G ----------------------------101010-555-------------------------
D -7-777777-5-777777-5-777777-101010-555-------------------------
A -7-777777-5-777777-5-777777-8-8-8--333-------------------------
E -5-555555-3-555555-3-555555------------------------------------ x4

e ---------------------------------------------------------------
B ---------------------------------------------------------------
G ---------------------------------------------------------------
D -77-7777-10-5-77-7777-10-5-77-7777-10-5--10-5-3----------------
A -77-7777-10-5-77-7777-10-5-77-7777-10-5--10-5-3----------------
E -55-5555-8--3-55-5555-8--3-55-5555-8--3--8--3-1---------------- x2
     ......   ......   ......
e ---------------------------------------------------------------
B ---------------------------------------------------------------
G ----------------------------101010-555-------------------------
D -7-777777-5-777777-5-777777-101010-555-------------------------
A -7-777777-5-777777-5-777777-8-8-8--333-------------------------
E -5-555555-3-555555-3-555555------------------------------------ x4

e ---------------------------------------------------------------
B ---------------------------------------------------------------
G ---------------------------------------------------------------
D -77-7777-10-5-77-7777-10-5-77-7777-10-5--10-5-3----------------
A -77-7777-10-5-77-7777-10-5-77-7777-10-5--10-5-3----------------
E -55-5555-8--3-55-5555-8--3-55-5555-8--3--8--3-1---------------- x2

During solo:
e ---------------------------------------------------------------
B ---------------------------------------------------------------
G ---------------------------------------------------------------
D -77-77777-33-33333-1010-55-33-77-77777-------------------------
A -77-77777-33-33333-1010-55-33-77-77777-------------------------
E -55-55555-11-11111-8-8--33-11-55-55555------------------------- x4
-end solo-

e ---------------------------------------------------------------
B ---------------------------------------------------------------
G ---------------------------------------------------------------
D -77-7777-10-5-77-7777-10-5-77-7777-10-5--7-5-3-2---------------
A -77-7777-10-5-77-7777-10-5-77-7777-10-5--7-5-3-2---------------
E -55-5555-8--3-55-5555-8--3-55-5555-8--3--5-3-1-0--------------- x2
     ......   ......   ......
e ---------------------------------------------------------------
B ---------------------------------------------------------------
G ----------------------------101010-555-------------------------
D -7-777777-5-777777-5-777777-101010-555-------------------------
A -7-777777-5-777777-5-777777-8-8-8--333-------------------------
E -5-555555-3-555555-3-555555------------------------------------ x4

e ---------------------------------------------------------------
B ---------------------------------------------------------------
G ---------------------------------------------------------------
D -77-7777-10-5-77-7777-10-5-77-7777-10-5--10-5-3----------------
A -77-7777-10-5-77-7777-10-5-77-7777-10-5--10-5-3----------------
E -55-5555-8--3-55-5555-8--3-55-5555-8--3--8--3-1----------------

e ---------------------------------------------------------------
B ---------------------------------------------------------------
G ---------------------------------------------------------------
D -77-7777-10-5-77-7777-10-5-77-7777-10-5--10-5-3-5--------------
A -77-7777-10-5-77-7777-10-5-77-7777-10-5--10-5-3-5--------------
E -55-5555-8--3-55-5555-8--3-55-5555-8--3--8--3-1-3--------------

  Visit MetalTabs.com for more metal tablature

bottom separator

Contact Us | Privacy Policy | Disclaimer | Legal Notice
Copyright © 2001-2014 MetalTabs.com. All Rights Reserved.