top separator

Home

Forum

What's New

Submit a Tab

FAQ

Links

Contact Us

Link to Us

MetalTabs.com logo

Bands

0-9

A

B

C

D

E

F

G

H

I

J

K

L

M

N

O

P

Q

R

S

T

U

V

W

X

Y

Z

Search

What

Where
 

Toxic Holocaust - "Ready To Fight" Guitar Tab

Plain Text Version
More Toxic Holocaust Tabs

Hits: 2766
Rated: 5.00 out of 5 (7 votes)
Updated: 2007-02-25 03:18:16

 

By:

Wolfsherz

sendpm.gif

email.gif

Important note
This tab is available online because we obtained explicit permission from Toxic Holocaust or their label.


#----------------------------------PLEASE NOTE---------------------------------#
#This file is the author's own work and represents their interpretation of the #
#song. You may only use this file for private study, scholarship, or research. #
#Unless specified otherwise, this is NOT an official tab from the band members.#
#------------------------------------------------------------------------------#

  Visit MetalTabs.com for more metal tablature
  
Band:  Toxic Holocaust
Album: Hell on Earth
Song:  Ready to Fight

Copyright (c)  Nuclear War Now! 2005

Transcribed By: Wolfsherz/Jens Cautereels
Email:          cautereels.jens@gmail.com

Tuning: EADGBe

e ---------------------------------------------------------------
B ---------------------------------------------------------------
G -2-2---5-7-5--2-2--3-5-3---2-2--5-8-7--2-3-5-7-5-3-------------
D -2-2---5/7-5--2-2--3/5-3---2-2--5/8-7--2-3-5-7-5-3-------------
A -0-0---3/5-3--0-0--1/3-1---0-0--3/6-5--0-1-3-5-3-1-------------
E --------------------------------------------------------------- x2

e ---------------------------------------------------------------
B ---------------------------------------------------------------
G -2-2---5-7-5--2-2--3-5-3---2-2--5-8-7-222-22-------------------
D -2-2---5/7-5--2-2--3/5-3---2-2--5/8-7-222-22-------------------
A -0-0---3/5-3--0-0--1/3-1---0-0--3/6-5-000-00-------------------
E --------------------------------------------------------------- x6

e ---------------------------------------------------------------
B ---------------------------------------------------------------
G ---------------------------------------------------------------
D ---------------------------------------------------------------
A -7777-7777-3333-5555-7777-7777-7777-7777-----------------------
E -5555-5555-1111-3333-5555-5555-5555-5555----------------------- x2
    "Possessed! I'm ready to fight!"
e ---------------------------------------------------------------
B ---------------------------------------------------------------
G ---------------------------------------------------------------
D -555-5-555-5-7777-5-7-3-2222-2222-2222-2222--------------------
A -333-3-333-3-5555-3-5-5-0000-0000-0000-0000--------------------
E --------------------------------------------------------------- x2
                     "Death! Watch as I end their lives"
e ---------------------------------------------------------------
B ---------------------------------------------------------------
G -2-2---5-7-5--2-2--3-5-3---2-2--5-8-7-222-22-------------------
D -2-2---5/7-5--2-2--3/5-3---2-2--5/8-7-222-22-------------------
A -0-0---3/5-3--0-0--1/3-1---0-0--3/6-5-000-00-------------------
E --------------------------------------------------------------- x6

e ---------------------------------------------------------------
B ---------------------------------------------------------------
G ---------------------------------------------------------------
D ---------------------------------------------------------------
A -7777-7777-3333-5555-7777-7777-7777-7777-----------------------
E -5555-5555-1111-3333-5555-5555-5555-5555----------------------- x2
    "Possessed! I'm ready to fight!"
e ---------------------------------------------------------------
B ---------------------------------------------------------------
G ---------------------------------------------------------------
D -555-5-555-5-7777-5-7-3-2222-2222-2222-2222--------------------
A -333-3-333-3-5555-3-5-5-0000-0000-0000-0000--------------------
E --------------------------------------------------------------- x2
                     "Death! Watch as I end their lives"
-short bass part-
     .... .... . .... ....
e ---------------------------------------------------------------
B ---------------------------------------------------------------
G ---------------------------------------------------------------
D ---------------------------------------------------------------
A -7777-7777-7-3333-3333-22222222-1555555------------------------
E -5555-5555-5-1113-1111-00000000-3333333------------------------ x2
   . .. . .. .             ..............
e ---------------------------------------------------------------
B ---------------------------------------------------------------
G ---------------------------------------------------------------
D -5-55-5-55-5-777-5-7-3-2-22222222222222------------------------
A -3-33-3-33-3-555-3-5-5-0-00000000000000------------------------
E --------------------------------------------------------------- x2

e ---------------------------------------------------------------
B ---------------------------------------------------------------
G -1314-14141414-1314-------------131414-13141314----------------
D -1314-14141414-131413-----------131414-13141314----------------
A ----------------------151412-12--------------------------------
E --------------------------------------------------------------- x2
   All 13's and such.
e ---------------------------------------------------------------
B -1010-1010101010-13131313-88-8/10-1010101010-------------------
G ---------------------------------------------------------------
D ---------------------------------------------------------------
A ---------------------------------------------------------------
E --------------------------------------------------------------- x2

e -2017--------------2017--2017----------------------------------
B -----18-1818181818-----18----18--13-12-13-10-------------------
G ---------------------------------------------------------------
D ---------------------------------------------------------------
A ---------------------------------------------------------------
E --------------------------------------------------------------- x2

Guitar 2 during solo:
e ---------------------------------------------------------------
B ---------------------------------------------------------------
G ---------------------------------------------------------------
D -555-----------------------------------------------------------
A -333-55-33-77-77777--------------------------------------------
E -----33-11-55-55555-------------------------------------------- x4

e ---------------------------------------------------------------
B ---------------------------------------------------------------
G ---------------------------------------------------------------
D ---------------------------------------------------------------
A -77-777777-333-3555-5777777------------------------------------
E -55-555555-111-1333-3555555------------------------------------ x2

e ---------------------------------------------------------------
B ---------------------------------------------------------------
G ---------------------------------------------------------------
D -555-5-555-5-7777-5-7-3-2222-2222-2222-2222--------------------
A -333-3-333-3-5555-3-5-5-0000-0000-0000-0000--------------------
E --------------------------------------------------------------- x2
-solo end-

e ---------------------------------------------------------------
B ---------------------------------------------------------------
G -2-2---5-7-5--2-2--3-5-3---2-2--5-8-7--2-3-5-7-5-3-------------
D -2-2---5/7-5--2-2--3/5-3---2-2--5/8-7--2-3-5-7-5-3-------------
A -0-0---3/5-3--0-0--1/3-1---0-0--3/6-5--0-1-3-5-3-1-------------
E --------------------------------------------------------------- x2

e ---------------------------------------------------------------
B ---------------------------------------------------------------
G -2-2---5-7-5--2-2--3-5-3---2-2--5-8-7-222-22-------------------
D -2-2---5/7-5--2-2--3/5-3---2-2--5/8-7-222-22-------------------
A -0-0---3/5-3--0-0--1/3-1---0-0--3/6-5-000-00-------------------
E --------------------------------------------------------------- x6

e ---------------------------------------------------------------
B ---------------------------------------------------------------
G ---------------------------------------------------------------
D ---------------------------------------------------------------
A -7777-7777-3333-5555-7777-7777-7777-7777-----------------------
E -5555-5555-1111-3333-5555-5555-5555-5555----------------------- x2
    "Possessed! I'm ready to fight!"
e ---------------------------------------------------------------
B ---------------------------------------------------------------
G ---------------------------------------------------------------
D -555-5-555-5-7777-5-7-3-2222-2222-2222-2222--------------------
A -333-3-333-3-5555-3-5-5-0000-0000-0000-0000--------------------
E ---------------------------------------------------------------

e ---------------------------------------------------------------
B ---------------------------------------------------------------
G ---------------------------------------------------------------
D -555-5-555-5-7777-5-7-3-2--------------------------------------
A -333-3-333-3-5555-3-5-5-0--------------------------------------
E ---------------------------------------------------------------
   "Death! Watch as I end their lives"

  Visit MetalTabs.com for more metal tablature

bottom separator

Contact Us | Privacy Policy | Disclaimer | Legal Notice
Copyright © 2001-2014 MetalTabs.com. All Rights Reserved.