top separator

Home

Forum

What's New

Submit a Tab

FAQ

Links

Contact Us

Link to Us

MuSpy.com

MetalTabs.com logo

Bands

0-9

A

B

C

D

E

F

G

H

I

J

K

L

M

N

O

P

Q

R

S

T

U

V

W

X

Y

Z

Search

What

Where
 

Toxic Holocaust - "Metallic Crucifixion" Guitar Tab

Plain Text Version
More Toxic Holocaust Tabs

Hits: 3613
Rated: 4.00 out of 5 (5 votes)
Updated: 2007-02-25 03:18:03

 

By:

Wolfsherz

sendpm.gif

email.gif

Important note
This tab is available online because we obtained explicit permission from Toxic Holocaust or their label.


#----------------------------------PLEASE NOTE---------------------------------#
#This file is the author's own work and represents their interpretation of the #
#song. You may only use this file for private study, scholarship, or research. #
#Unless specified otherwise, this is NOT an official tab from the band members.#
#------------------------------------------------------------------------------#

  Visit MetalTabs.com for more metal tablature
  
Band:  Toxic Holocaust
Album: Hell on Earth
Song:  Metallic Crucifixion

Copyright (c)  Nuclear War Now! 2005

Transcribed By: Wolfsherz/Jens Cautereels
Email:          cautereels.jens@gmail.com

Tuning: EADGBe

e ---------------------------------------------------------------
B ---------------------------------------------------------------
G ---------------------------------------------------------------
D -5-22-777-535-222----------------------------------------------
A -3-00-555-313-000----------------------------------------------
E --------------------------------------------------------------- x4

e ---------------------------------------------------------------
B ---------------------------------------------------------------
G ---------------------------------------------------------------
D -877777-1088888-55557777---------------------------------------
A -655555-8-66666-33335555---------------------------------------
E --------------------------------------------------------------- x2

e ---------------------------------------------------------------
B ---------------------------------------------------------------
G ---------------------------------------------------------------
D -5-22-777-535-222----------------------------------------------
A -3-00-555-313-000----------------------------------------------
E --------------------------------------------------------------- x2

e ---------------------------------------------------------------
B ---------------------------------------------------------------
G ---------------------------------------------------------------
D -877777-1088888-55557777---------------------------------------
A -655555-8-66666-33335555---------------------------------------
E --------------------------------------------------------------- x2

e ---------------------------------------------------------------
B ---------------------------------------------------------------
G ---------------------------------------------------------------
D ---------------------------------------------------------------
A -555555-78-555555-63-------------------------------------------
E -333333-56-333333-41------------------------------------------- x4

e ---------------------------------------------------------------
B ---------------------------------------------------------------
G ---------------------------------------------------------------
D -5-22-777-535-222----------------------------------------------
A -3-00-555-313-000----------------------------------------------
E --------------------------------------------------------------- x4

e ---------------------------------------------------------------
B ---------------------------------------------------------------
G ---------------------------------------------------------------
D -877777-1088888-55557777---------------------------------------
A -655555-8-66666-33335555---------------------------------------
E --------------------------------------------------------------- x2

e ---------------------------------------------------------------
B ---------------------------------------------------------------
G ---------------------------------------------------------------
D ---------------------------------------------------------------
A -555555-78-555555-63-------------------------------------------
E -333333-56-333333-41------------------------------------------- x4

e ---------------------------------------------------------------
B ---------------------------------------------------------------
G ---------------------------------------------------------------
D -33-333-333-33-53----------------------------------------------
A -11-111-111-11-31-55-555-555-555-5-----------------------------
E ------------------33-333-333-333-3-----------------------------

e ---------------------------------------------------------------
B ---------------------------------------------------------------
G ---------------------------------------------------------------
D -33-333-333-33---3-5-------------------------------------------
A -11-111-111-11-5-1-3-------------------------------------------
E ---------------3-----------------------------------------------

   (during solo)
e ---------------------------------------------------------------
B ---------------------------------------------------------------
G ---------------------------------------------------------------
D -5-22-777-535-222----------------------------------------------
A -3-00-555-313-000----------------------------------------------
E --------------------------------------------------------------- x6

e ---------------------------------------------------------------
B ---------------------------------------------------------------
G ---------------------------------------------------------------
D -877777-1088888-55557777---------------------------------------
A -655555-8-66666-33335555---------------------------------------
E --------------------------------------------------------------- x2

e ---------------------------------------------------------------
B ---------------------------------------------------------------
G ---------------------------------------------------------------
D ---------------------------------------------------------------
A -555555-78-555555-63-------------------------------------------
E -333333-56-333333-41------------------------------------------- x4

B ---------------------------------------------------------------
G ---------------------------------------------------------------
D -7-3-----------------------------------------------------------
A -5-1-5-3-5-----------------------------------------------------
E -----3-1-3-----------------------------------------------------

  Visit MetalTabs.com for more metal tablature

bottom separator

Contact Us | Privacy Policy | Disclaimer | Legal Notice
Copyright © 2001-2014 MetalTabs.com. All Rights Reserved.