top separator

Home

Forum

What's New

Submit a Tab

FAQ

Links

Contact Us

Link to Us

MetalTabs.com logo

Bands

0-9

A

B

C

D

E

F

G

H

I

J

K

L

M

N

O

P

Q

R

S

T

U

V

W

X

Y

Z

Search

What

Where
 

Immortal - "Triumph" Guitar Tab

Plain Text Version
More Immortal Tabs

Hits: 2737
Rated: 4.00 out of 5 (2 votes)
Updated: 2007-02-25 03:13:03

 

By:

sendpm.gif

email.gif

Important note
We did our best to reach Immortal and ask for their permission to publish this tab. Unfortunately they did not respond to our requests or we could not find a way to contact them. This tab is available online until Immortal tells us to take it down.


#----------------------------------PLEASE NOTE---------------------------------#
#This file is the author's own work and represents their interpretation of the #
#song. You may only use this file for private study, scholarship, or research. #
#Unless specified otherwise, this is NOT an official tab from the band members.#
#------------------------------------------------------------------------------#

  Visit MetalTabs.com for more metal tablature
  
Artista: Immortal
Canción: Triumph
Album: Damned in black

Transcrita por: Leandro, "The Impaler" (impaler666@gmail.com)
Fecha: 14/02/07
Última modificación: -

*¡PREGUNTAS O CORRECCIONES A MI CORREO! ¡GRACIAS!*

NOTAS: Al solo, a pesar de ser fácil, lo saqué rápido, así que estoy
       seguro de que algún error debe tener...
       Por favor no se olviden de escribirme si encuentran algún error
       o algo fuera de lugar ;-).

Afinación: Estándar.

Riff 1
e|-----------------------------------------------------|
B|-----------------------------------------------------|
G|-----------------------------------------------------|
D|-3-2-----------------------------3-2-----------------|
A|-3-2-----------------------------3-2-----------------|
E|-1-0-000-000-000-000-000-000-000-1-0-000-000-000-X\\-|
       *** *** *** *** *** *** ***     *** *** ***
Riff 2                            x4
e|----------------------------------|
B|----------------------------------|
G|-------------------------55554444-|
D|-3-2---------------------55554444-|
A|-3-2---------------------33332222-|
E|-1-0-000-000-000-000-000----------|
       *** *** *** *** ***
Riff 3
e|---------------------------------|
B|---------------------------------|
G|---------------------------------|
D|-7/8-----8\5-5/7-----7/8-8-5-5-4-|
A|---------------------------5-5-4-|
E|-5/6-000-6\3-3/5-000-5/6-6-3-3-2-|
       ***         ***

Play Riff 2 x4

Riff 4
e|---------------------------------|
B|---------------------------------|
G|---------------------------------|
D|-7/8-----8\5-5/7-----7/8-8-5-5-7-|
A|---------------------------------|
E|-5/6-000-6\3-3/5-000-5/6-6-3-3-5-|
       ***         ***

Play Riff 3
Play Riff 4

Riff 5
e|------------------------------------------------|
B|------------------------------------------------|
G|-----5--4---------4--3----------5\4---------4\3-| -----|
D|-2---5--4---------4--3----------5\4---------4\3-|      |
A|-2---3--2---------2--1----------3\2---------2\1-|      |
E|-0---------000000-------00000-0-----00000-0-----|      |
             ******       ***** *     ***** *            |---> Play x4
e|--------------------------------------------------|    |
B|--------------------------------------------------|    |
G|-------5--4---------4--3----------5\4-------------|    |
D|-------5--4---------4--3----------5\4-4-4-4-3-3-3-| ---|
A|-------3--2---------2--1----------3\2-4-4-4-3-3-3-|
E|-00000-------000000-------3333333-----2-2-2-1-1-1-|
  *****       ******       *******
Riff 6
e|----------------------------------------------------|
B|----------------------------------------------------|
G|----------------------------------------------------|
D|-2--7------5------4------7------5------4------5\4-4-|
A|-2--7------5------4------7------5------4------5\4-4-|
E|-0--5-0000-3-0000-2-0000-5-0000-3-0000-2-0000-3\2-2-|
        ****   ****   ****   ****   ****   ****
     "Taste a tide..."
e|------------------------------------------------------|
B|------------------------------------------------------|
G|-------------------------7/8-8--------11/12-12--------|
D|-2--7------5------4-----------------------------------|
A|-2--7------5------4------5/6-6---------9/10-10--------|
E|-0--5-0000-3-0000-2-0000-------0-0000----------0-0000-|
        ****   ****   ****       * ****          * ****
e|----------------------------------------------------|
B|----------------------------------------------------|
G|----------------------------------------------------|
D|-2--7------5------4------7------5------4------5\4-4-|
A|-2--7------5------4------7------5------4------5\4-4-|
E|-0--5-0000-3-0000-2-0000-5-0000-3-0000-2-0000-3\2-2-|
        ****   ****   ****   ****   ****   ****
     "On the windrippled..."
Riff 6a
e|----------------------------------------|
B|----------------------------------------|
G|----------------------------------------|
D|-2--7------5------4------------------2--|
A|-2--7------5------4------------------2--|
E|-0--5-0000-3-0000-2-0000-6-5-3-5-3-2-0--|
        ****   ****   **** * * * * * *
  "The everflowing..."                "...cold."

Play Riff 5 x2
Play Riff 6

Riff 6b
e|--------------------------------------------------|
B|--------------------------------------------------|
G|-------------------------7/8-8--------8/5-5/7-777-|
D|-2--7------5------4-------------------------------|
A|-2--7------5------4------5/6-6--------6/3-3/5-555-|
E|-0--5-0000-3-0000-2-0000-------0-0000-------------|
        ****   ****   ****       * ****
  "The everflowing..."                "...cold."

Play Riff 6
Play Riff 6a

Riff 6a Ending
e|-------------|
B|-------------|
G|-------------|
D|-------------|
A|-------------|
E|-6-5-3-5-3-2-|
   * * * * * *
Riff 7
e|-----------------------------------------------------|
B|-----------------------------------------------------|
G|-----------------------------------------------------|
D|---------------------------------3-2-----------------|
A|---------------------------------3-2-----------------|
E|-000-000-000-000-000-000-000-000-1-0-000-000-000-X\\-|
   *** *** *** *** *** *** *** ***     *** *** ***

Play Riff 2 x4 "...won!!!"
Play Riff 3
Play Riff 2 x4
Play Riff 4
Play Riff 3
Play Riff 4
Play Riff 3

Riff 8
e|------------------------------------------|
B|------------------------------------------|
G|----9--9-------9--9-------9--9-------9--9-|
D|-2--9--9---2---9--9---2---9--9---2---9--9-|
A|-2--7--7---2---7--7---2---7--7---2---7--7-|
E|-0-------0-0-0------0-0-0------0-0-0------|
           *   *      *   *      *   *
e|----------------------------------|
B|----------------------------------| NOTA: No se molesten en hacer todo,
G|----------------------------------| creo que suenan dos guitarras, pero
D|-----------5------3-------3---3ph-| por las dudas, lo puse por si alguien
A|--------55--5-5---3----3---3------| quiere que la canción suene parecida.
E|-333333-3-3--3-33-1111--11--1-----|
   ******            ***
e|---------------------------------------------|
B|---------------------------------------------|
G|-------9--9-------9--9-------9--9-------9--9-|
D|---2---9--9---2---9--9---2---9--9---2---9--9-|
A|---2---7--7---2---7--7---2---7--7---2---7--7-|
E|-0-0-0------0-0-0------0-0-0------0-0-0------|
   *   *      *   *      *   *      *   *
e|----------------------------------|
B|----------------------------------|
G|----------------------------------|
D|-----------5------3-------3---2ph-|
A|--------55--5-5---3----3---3------|
E|-333333-3-3--3-33-11111-11--1-----|
   ******            ****
e|---------------------------------------------|
B|---------------------------------------------|
G|-------9--9-------9--9-------9--9-------9--9-|
D|---2---9--9---2---9--9---2---9--9---2---9--9-|
A|---2---7--7---2---7--7---2---7--7---2---7--7-|
E|-0-0-0------0-0-0------0-0-0------0-0-0------|
   *   *      *   *      *   *      *   *
                                      x4
e|--------------------------------------|
B|--------------------------------------|
G|--------------------------------------|
D|--5---------5---3---8---------8---6---|
A|--5-----5----5---3--8-----8----8---6--|
E|--3-333--33---3---3-6-666--66---6---6-|
      ***               ***
Riff 9
e|-------------------------------------------|
B|-------------------------------------------|
G|-------------------------------------------| ---------------|
D|-------------------------------------------|                |
A|-------------------------3----3----3----3--|                |
E|-3-333-6-3-3-3-333-6-3-0--3333-3333-3333---|                |
   * ***   * * * ***        **** **** ****                    |
                          "Battle all the lands..."           |
e|----------------------------------------------------|       |
B|----------------------------------------------------|       |
G|----------------------------------------------------|       |
D|----------------------------------------------4--3--|       |
A|----------------------------------------------------|       |------> Play x2
E|-3-333-6-3-3-3-333-6-3-6-5-2222-5-2222-5-2222-------|       |
   * ***   * * * ***         ****   ****   ****               |
e|-------------------------------------------|                |
B|-------------------------------------------|                |
G|-------------------------------------------|                |
D|-------------------------------------------|                |
A|-------------------------3----3----3----3--|                |
E|-3-333-6-3-3-3-333-6-3-0--3333-3333-3333---|                |
   * ***   * * * ***        **** **** ****                    |
e|----------------------------------------------------|       |
B|----------------------------------------------------|       |
G|----------------------------------------------------| ------|
D|----------------------------------------------4--3--|
A|----------------------------------------------------|
E|-3-333-6-3-3-3-333-6-3-6-2-2222-5-2222-5-2222-------|
   * ***   * * * ***       * ****   ****   ****

Play Riff 8
Play Riff 9 x2 "Black demonic hordes..."
Play Riff 5 x4

Solo
e|-----------------------------------------------------------|
B|-12b--12b--13b--12b---------13-12--------------------------|
G|-14b--15b--15b--11b---------------12-14-12-----------------|
D|---------------------/14-14----------------1414-17-1414-12-|
A|-----------------------------------------------------------|
E|-----------------------------------------------------------|

e|-----------------------------------------------------------|
B|--------------------------------13-12----------------------|
G|----------17----------16--------------12-14-12-10-14-10-14-|
D|-14141414----14141414----141414----------------------------|
A|-----------------------------------------------------------|
E|-----------------------------------------------------------|

e|-------------------------------------------------------|
B|-------------------------------------------------------|
G|-10-14-------------12-14-12----------12----------------|
D|-------11-11-11-11----------------------14-14----------|
A|----------------------------13131313-------------------|
E|----------------------------------------------121212\--|


Play Riff 5 x2
Play Riff 6
Play Riff 6b
Play Riff 6
Play Riff 6a

END

  Visit MetalTabs.com for more metal tablature

bottom separator

Contact Us | Privacy Policy | Disclaimer | Legal Notice
Copyright © 2001-2014 MetalTabs.com. All Rights Reserved.