top separator

Home

Forum

What's New

Submit a Tab

FAQ

Links

Contact Us

Link to Us

MuSpy.com

MetalTabs.com logo

Bands

0-9

A

B

C

D

E

F

G

H

I

J

K

L

M

N

O

P

Q

R

S

T

U

V

W

X

Y

Z

Search

What

Where
 

Insision - "Trapped Within" Guitar Tab

Plain Text Version
More Insision Tabs

Hits: 1920
Updated: 2007-06-24 23:26:38

 

By:

goatman

sendpm.gif

email.gif

Important note
This tab is available online because we obtained explicit permission from Insision or their label.


#----------------------------------PLEASE NOTE---------------------------------#
#This file is the author's own work and represents their interpretation of the #
#song. You may only use this file for private study, scholarship, or research. #
#Unless specified otherwise, this is NOT an official tab from the band members.#
#------------------------------------------------------------------------------#

  Visit MetalTabs.com for more metal tablature
  
Band:  (INSISION)
Album: (BENEATH THE FOLDS OF FLESH)
Song:  (TRAPPED WITHIN)

Copyright (c)  (WICKED WORLD/EARACHE RECORDS) (2002)

Transcribed By: (GOATMAN)
Email:          (VIRUS010891@AOL.COM)


.  - palm mute           /  - slide up to         / - slide up to
tr - trill               "  - tremolo              - slide down from
 b - bend               <>  - pinch harmonic
() - sustained note      h  - hammer on          p - pull off

Tuning: C STANDARD

--------------------------------------------------------------------
--------------------------------------------------------------------
--------------------------------------------------------------------
--------------------------------------------------------------------
-765465435432765465435432765465437654654354324321-------------------
--------------------------------------------------0-4-3-0-3-2-1-0---
 ................................................ . . . . . . . .

--------------------------------------------------------------------
--------------------------------------------------------------------
--------------------------------------------------------------------
----------------------------------------------------7"--------------
-765465435432765465435432765465437654654354324321-------8"----------
--------------------------------------------------0---0-------------
 ................................................ .   .

--------------------------------------------------------------------
--------------------------------------------------------------------
--------------------------------------------------------------------
--------------------------------------------------------------------
-765465435432765465435432765465437654654354324321-------------------
--------------------------------------------------0-4-3-0-3-2-1-0---
 ................................................ . . . . . . . .

---------------------------------------------------------------------
---------------------------------------------------------------------
---------------------------------------------------------------------
---------------------------------------------------------------------
-765465435432765465435432765465437654654354324321-4-4----3-3----2----
--------------------------------------------------2-2-5"-1-1-4"-0-3"-
 ................................................ . .    . .    .

|------------------------------------------------------------------------
|.-----------------------------------------------------------------------
|------------------------------------------------------------------------
|---------8"--------------------------------------8"---------------------
|.---8"-7"--8"--7"-6"-9"-8"------8"-7"--5"---8"-7"--8"--7"-6"-9"-8"------
|--0"---------0"-----------8"-7"------6"---0"---------0"-----------8"-7"-
            . .            .  .       .             . .            .  .
                 X2
------------------|------|--------------------------------------------------
-----------------.|------|.-------------------------------------------------
------------------|-TWO--|-----------10"------------------------------------
------------------|-BEAT-|---------8"---8"--------------------------------8"
-3-2-3-4-5-4-3-4-.|-REST-|.---8"-7"-------7"-----6"-9"-----6"-9"-5"--8"-7"--
-1-0-1-2-3-2-1-2--|------|--0"--------------6"-0"-----8"-0"--------0"-------
 . . . . . . . .
                                      X2
---------------------------------------|----------------------------------------
--------------------------------------.|.---------------------------------------
-10"--9"-8"----------------------------|----------------------------------------
----8"---------------------------------|----------------------------------------
-----------------3"---3-2-3-4-5-4-3-4-.|.---------------------------------------
------------0"-2"--2"-1-0-1-2-3-2-1-2--|-00-0-00-0-3tr6-2tr5-00-0-00-0-6tr9-5tr8
                      . . . . . . . .    .. . .. .           .. . .. .
                                     x2                                  x3
--------------------------------------|-----------------------------------|
-------------------------------------.|.---------------------------------.|
--------------------------------------|-----------------------------------|
--------------------------------------|-----------------------------------|
-----------7tr10-6tr9----------------.|.---------------------------------.|
-00-0-00-0------------6-9-5-8-4-7-3-6-|--1-4-1-0-5-8-4-7-1-4-1-0-4-7-3-6--|
 .. . .. .            . . . . . . . .    . . . . . . . . . . . . . . . .

-----------------------------|--------------------------------------------
-----------------------------|.-------------------------------------------
-----------------------------|-----------10"------------------------------
-----------------------------|---------8"---8"----------------------------
------------------6--5--4--3-|.---8"-7"-------7"-----6"-9"-----6"-9"-5"---
-1-4-1-0-5-8-4-7--4--3--2--1-|--0"--------------6"-0"-----8"-0"-----------
 . . . . . . . .  .  .  .  .
                                               x2                 x8
------------------------------------------------|------------------|
-----------------------------------------------.|.----------------.|
----------10"--9"-8"----------------------------|------------------|
--------8"---8"---------------------------------|--8---------(9b)--|
---8"-7"------------------3"---3-2-3-4-5-4-3-4-.|.-6---------(7)--.|
-0"------------------0"-2"--2"-1-0-1-2-3-2-1-2--|--6-0-0-0-0-(7)---|
                               . . . . . . . .       . . . .

|------------------------------------------------------------------------
|.-----------------------------------------------------------------------
|------------------------------------------------------------------------
|--------------1---------------------------------------------------------
|.-2--4--3--2--1--4--3-<2>-2--4--3--2-8tr9-7tr8-11tr12-10tr11--2--4--3--2
|--0--2--1--0-----2--1-----0--2--1--0--------------------------0--2--1--0
   .  .  .  .  .  .  .     .  .  .  .                          .  .  .  .
                                     x2
--------------------------------------|-------------------------------
-------------------------------------.|-------------------------------
--------------------------------------|-------------------------------
-1------------------------------------|-------------------------------
-1--4--3--2--2--4--3--2-6tr7-5tr6----.|-/7---------/6---------/5------
----2--1--0--0--2--1--0-----------6-5-|-/7-0-0-0-0-/6-0-0-0-0-/5-0-0--
 .  .  .  .  .  .  .  .                    . . . .    . . . .    . .

--------------------------------------------------------------------------------
--------------------------------------------------------------------------------
--------------------------------------------------------------------------------
--------------------------------------------------------------------------------
-/7---------/6---------<1>~/7---------/6---------/5-----/7---------/6--------<1>
-/7-0-0-0-0-/6-0-0-0-0-----/7-0-0-0-0-/6-0-0-0-0-/5-0-0-/7-0-0-0-0-/6-0-0-0-0---
    . . . .    . . . .        . . . .    . . . .    . .    . . . .    . . . .

-------------------------------------------------------------------
-------------------------------------------------------------------
-------------------------------------------------------------------
-------------------------------------------------------------------
-765465435432765465435432765465437654654354324321------------------
--------------------------------------------------0-4-3-0-3-2-1-0--
 ................................................ . . . . . . . .

-------------------------------------------------------------------
-------------------------------------------------------------------
-------------------------------------------------------------------
-----------------------------------------------------7"-------------
-765465435432765465435432765465437654654354324321---------8"--------
---------------------------------------------------0----0-----------
 ................................................. .    .

--------------------------------------------------------------------
--------------------------------------------------------------------
--------------------------------------------------------------------
--------------------------------------------------------------------
-765465435432765465435432765465437654654354324321-------------------
--------------------------------------------------0-4-3-0-3-2-1-0---
 ................................................ . . . . . . . .

--------------------------------------------------------------------
--------------------------------------------------------------------
--------------------------------------------------------------------
--------------------------------------------------------------------
-765465435432765465435432765465437654654354324321-4-4----3-3----2---
--------------------------------------------------2-2-5"-1-1-4"-0-3"
 ................................................ . .    . .    .
                    x3
|--------------------|---------------------------------------------------
|.------------------.|---------------------------------------------------
|----------------8--|---------------------------------------------------
|--8---------(9)-----|-8---------(9)--------------1----------------------
|.-6---------(7)----.|-6---------(7)--2--4--3--2--1--4--3--2--2--4--3--2-
|--6-0-0-0-0-(7)-----|-6-0-0-0-0-(7)--0--2--1--0-----2--1--0--0--2--1--0-
     . . . .             . . . .      .  .  .  .  .  .  .  .  .  .  .  .

---------------------------------------------------------------------------
---------------------------------------------------------------------------
---------------------------------------------------------------------------
--------------------------------------1------------------------------------
-8tr9-7tr8-11tr12-10tr11--2--4--3--2--1--4--3--2--2--4--3--2-6tr7-5tr6-----
--------------------------0--2--1--0-----2--1--0--0--2--1--0-----------6-5-
                          .  .  .  .  .  .  .  .  .  .  .  .
                  x4
|------------------|-----------------------------------------------------------
|.----------------.|.----------------------------------------------------------
|------------------|-----------------------------------------------------------
|---------------1--|-----------------4h7p4-3h6p3--------------------------4h7p4
|.5-4-3-2-4-3-2-1-.|.-----3h6p3----------------------------------3h6p3---------
|-3-2-1-0-2-1-0----|-2h5p2------2h5p2-----------2-1-4-3-2-1-2h5p2-----2h5p2----
   . . . . . . . .                                . . . . . .
              x4
---------------|----------------------------------|-------------------------
--------------.|----------------------------------|.------------------------
---------------|----------------------------------|-------------------------
-3h6p3-(6tr9)--|---------------1------------------|----------------4h7p4----
--------------.|-5-4-3-2-4-3-2-1-5-4-3-2-4-3-<1>~-|.-----3h6p3--------------
---------------|-3-2-1-0-2-1-0---3-2-1-0-2-1------|-2g5p2-----2h5p2---------
                 . . . . . . . . . . . . . .
                   x2
--------------------|--------------------------------------------------------
-------------------.|--------------------------------------------------------
--------------------|--------------------------------------------------------
-3h6p3--------------|---------------1--------------------------------4h7p4---
-------------------.|-5-4-3-2-4-3-2-1-5-4-3-2-4-3-<1>------3h6p3-------------
-------2-1-4-3-2-1--|-3-2-1-0-2-1-0---3-2-1-0-2-1-----2h5p2-----2h5p2--------
       . . . . . .    . . . . . . . . . . . . . .
                                                                        x4
-----------------------------------------------------|-------------------|
-----------------------------------------------------|.-----------------.|
-----------------------------------------------------|-------------------|
-3h6p3----------------------------4h7p4-3h6p3-(6tr9)-|----------------1--|
------------------------3h6p3------------------------|.-5-4-3-2-4-3-2-1-.|
-------2-1-4-3-2-1-2h5p2-----2h5p2-------------------|--3-2-1-0-2-1-0----|
       . . . . . .                                      . . . . . . . .

--------------------
--------------------
--------------------
-1------------------
-1--4--3------------
----2--1--(2tr5)----

  Visit MetalTabs.com for more metal tablature

bottom separator

Contact Us | Privacy Policy | Disclaimer | Legal Notice
Copyright © 2001-2014 MetalTabs.com. All Rights Reserved.