top separator

Home

Forum

What's New

Submit a Tab

FAQ

Links

Contact Us

Link to Us

MuSpy.com

MetalTabs.com logo

Bands

0-9

A

B

C

D

E

F

G

H

I

J

K

L

M

N

O

P

Q

R

S

T

U

V

W

X

Y

Z

Search

What

Where
 

Naglfar - "The Eclipse Of Infernal Storms" Guitar Tab

Plain Text Version
More Naglfar Tabs

Hits: 1940
Rated: 1.00 out of 5 (1 vote)
Updated: 2007-03-05 01:50:54

 

By:

darkonion

sendpm.gif

email.gif

Important note
This tab is available online because we obtained explicit permission from Naglfar or their label.


#----------------------------------PLEASE NOTE---------------------------------#
#This file is the author's own work and represents their interpretation of the #
#song. You may only use this file for private study, scholarship, or research. #
#Unless specified otherwise, this is NOT an official tab from the band members.#
#------------------------------------------------------------------------------#

  Visit MetalTabs.com for more metal tablature
  
Band:  Naglfar
Album: Vittra
Song: The Eclipse Of Infernal Storms

Copyright (c)  Regain 1998
Version 1.2 - 2/26/07

Transcribed By: Paul Rose
Email:          Darkoniontabs@gmail.com


.  - palm mute           /  - slide up to
  - slide down to       ~  - vibrato
h  - hammer on           b  - Bend
p  - pull off            Suffixes for bend
t  - tap                 f  - full bend    h - half bend
ph - pinched harmonic    q  - quarter bend t - tap bend
*  - see comment         ^  - Hold bend    r release bend
x  - Stuccatto           ~  - vibrato bend
,  - slight palm mute    () - ghost note, sustained note
"  - tremolo note        <> - Trill

Tuning E A D G B E

Riff 1                                      Riff 2
|---------------------------------------|   |----------------|
|---------------------------------------|   |----------------|
|---------------------------------------|   |----------------|
|--6-6\5\3-3--------6-6\5\3-3-----------|   |----------------|
|--4-4\3\1-1-4-3-6--4-4\3\1-1-4/5-3-4---|   |--6-4-6-4-3-4---|
|------------2-1-4------------2/4-1-2---|   |--4-2-4-2-1-2---|

Riff 3                                    Riff 4
|-------------------------------------|   |------------------|
|-------------------------------------|   |------------------|
|-------------2-4-2---2-0-----4-2-0---|   |------------------|
|--2--4-5-4-5-------2-----4-0---------|   |------------------|
|-------------------------------------|   |--4-2-3-4-2-6-3---|
|-------------------------------------|   |--2-0-1-2-0-4-1---|


Play:
[Start at] Riff 1 X2
Riff 2 X6
Riff 3 X4
Riff 1 X2
Riff 2 X2
Riff 4 X4
Riff 3 X2
Sexy Piano Solo
Riff 3 X4
Riff 1 X4 [to end]

  Visit MetalTabs.com for more metal tablature

bottom separator

Contact Us | Privacy Policy | Disclaimer | Legal Notice
Copyright © 2001-2014 MetalTabs.com. All Rights Reserved.