top separator

Home

Forum

What's New

Submit a Tab

FAQ

Links

Contact Us

Link to Us

MetalTabs.com logo

Bands

0-9

A

B

C

D

E

F

G

H

I

J

K

L

M

N

O

P

Q

R

S

T

U

V

W

X

Y

Z

Search

What

Where
 

As I Lay Dying - "Through Struggle" Guitar Tab

Plain Text Version
More As I Lay Dying Tabs

Hits: 5454
Rated: 4.67 out of 5 (6 votes)
Updated: 2007-02-25 03:05:33

 

By:

sendpm.gif

email.gif

Important note
This tab is available online because we obtained explicit permission from As I Lay Dying or their label.


#----------------------------------PLEASE NOTE---------------------------------#
#This file is the author's own work and represents their interpretation of the #
#song. You may only use this file for private study, scholarship, or research. #
#Unless specified otherwise, this is NOT an official tab from the band members.#
#------------------------------------------------------------------------------#

  Visit MetalTabs.com for more metal tablature
  
Band: As I Lay Dying
Album: Shadows Are Security
Song: Through Struggle
Copytight: Metal Blade Records 2005
E-mail: Campkilurself@yahoo.com

HOPE YOU METAL MANIACS HAVE FUN...........enjoy!!


  /   slide up
  \  slide down
  h  hammer-on
  b  Bend
  r  release
  p  pull-off
  ~  vibrato
 <>  A. harmonic
  x  Mute note
 x\\ pick scratch
 pm..Palm mutes


Tunings: *Drop-C


Drum intro:


  |Guitar:1n2
d||------------------------------------------------||
a||------------------------------------------------||
f||------------------------------------------------||
c||---0--------(0)--------0--------(0)-------------||
g||---0--------(0)--------0--------(0)------X\\----||
C||---0--------(0)--------0--------(0)-------X\\\--||
pm|




  |Guitar:1n2
d||-----------------------------------------------------------------------||
a||-----------------------------------------------------------------------||
f||*---------------------------------------------------------------------*||
c||-----------------------------------------------------------------------||
g||*-----8-----7-----7-8-10-----10-8-7-----8-----7-----5-7-8-----8-7-5---*||
C||---000---000---000--------000--------888---888---555-------777---------||
pm|   ...   ...   ...        ...        ...   ...   ...       ...           \
  |                                                                          X2
  |Guitar:3                                                                 /
d||-----------------------------------------------------------------------||
a||-----------------------------------------------------------------------||
f||*---------------------------------------------------------------------*||
c||-----------------------------------------------------------------------||
g||*--0000--0000--0000-------0000----------8------7-----5--------7-------*||
C||---0000--0000--0000-------0000-------8888---8888--5555-----7777--------||
pm|   ....  ....  ....       ....       ...    ...   ...      ...




  |Guitar:1
d||-----------------------------------------------------------------------||
a||-----------------------------------------------------------------------||
f||-----------------------------------------------------------------------||
c||-----------------------------------------------------------------------||
g||------8-----7-----7-8-10------10-8-7-----8-----7-----5-7-8-----8-7-5---||
C||---000---000---000---------000--------888---888---555-------777--------||
pm|   ...   ...   ...         ...        ...   ...   ...       ...
  |
  |Guitar:2
d||-----------------------------------------------------------------------||
a||-----------------------------------------------------------------------||
f||-----------------------------------------------------------------------||
c||------------------------------------------------------3-5-7----7-5-3---||
g||------12----10----10-12-13----13-12-10----12----10----------000--------||
C||---000---000---000---------000---------888---888---555-----------------||
pm|   ...   ...   ...         ...         ...   ...   ...      ...
  |
  |Guitar:3
d||-----------------------------------------------------------------------||
a||-----------------------------------------------------------------------||
f||-----------------------------------------------------------------------||
c||-----------------------------------------------------------------------||
g||---0000--0000--0000--------0000-----------8-----7-----5--------7-------||
C||---0000--0000--0000--------0000--------8888--8888--5555-----7777-------||
pm|   ....  ....  ....        ....        ...   ...   ...      ...




  |Guitar:1
d||-----------------------------------------------------------------------||
a||-----------------------------------------------------------------------||
f||-----------------------------------------------------------------------||
c||-----------------------------------------------------------------------||
g||------8-----7-----7-8-10------10-8-7------------8-7-5------------------||
C||---000---000---000---------000---------8888-----------8\-----5555------||
pm|   ...   ...   ...         ...         ....                  ....
  |
  |Guitar:2
d||-----------------------------------------------------------------------||
a||-----------------------------------------------------------------------||
f||-----------------------------------------------------------------------||
c||------------------------------------------------7-5--------------------||
g||------12----10----10-12-13----13-12-10--------------8-5\---------------||
C||---000---000---000---------000---------8888------------------5555------||
pm|   ...   ...   ...         ...         ....                  ....
  |
  |Guitar:3
d||-----------------------------------------------------------------------||
a||-----------------------------------------------------------------------||
f||-----------------------------------------------------------------------||
c||-----------------------------------------------------------------------||
g||---0000--0000--0000--------0000--------8888------------------5555------||
C||---0000--0000--0000--------0000--------8888------------------5555------||
pm|   ....  ....  ....        ....        ....                  ....




  |Guitar:1n2
d||-----------------------------------------------||
a||-----------------------------------------------||
f||-----------------------------------------------||
c||---0--------0--------0--------8----5-----------||
g||---0--------0--------0--------8----5-----X\\---||
C||---0--------0--------0--------8----5----X\-----||
pm|
  |
  |Guitar:3
d||-----------------------------------------------||
a||-----------------------------------------------||
f||-----------------------------------------------||
c||---0--------0-------<7>b8.5r--8----5-----------||
g||---0--------0-----------------8----5----X\\\---||
C||---0--------0-----------------8----5-----------||
pm|




  |Guitar:1n2
d||----------------------------------------------------------------------||
a||----------------------------------------------------------------------||
f||----------------------------------------------------------------------||
c||---0-------------------------------8----------------------------------||
g||---0----5---8---5---10---8---7h8p7-8----8---12---10p8-----7---8---7---||
C||---0--0---0---0---0----0---0-------8--8---8----8------8-5---5---5-----||
pm|      .   .   .   .    .   .          .   .    .      . .   .   .




  |Guitar:1
d||----------------------------------------------------------------------||
a||----------------------------------------------------------------------||
f||----------------------------------------------------------------------||
c||---0-------------------------------8----------------------------------||
g||---0----5---8---5-7-888-7-5-7-5----8----8---12---10p8-----7---8---7---||
C||---0--0---0---0-----------------10-8--8---8----8------8-5---5---5-----||
pm|      .   .   . . . ... . . . .  .    .   .    .      . .   .   .
  |
  |Guitar:2
d||------------------------------------------------------------------------||
a||------------------------------------------------------------------------||
f||------------------------------------------------------------------------||
c||---0-----------------777-------------8----------------------------------||
g||---0----5---8---8-10-----10-8-10-8-7-8----8---12---10p8-----7---8---7---||
C||---0--0---0---0----------------------8--8---8----8------8-5---5---5-----||
pm|      .   .   . .  . ...  . .  . .      .   .    .      . .   .   .




  |Guitar:1
d||--------------------------------------------------------------------||
a||--------------------------------------------------------------------||
f||--------------------------------------------------------------------||
c||--------------------------------------------------------------------||
g||--------5---5p3---------5---5p3p0-------5---5p3p0--------5---5p3----||
C||--0---0---0-----0-0---0---0-------8---8---8-------5---5---5-----5---||
pm|      .   .     .     .   .           .   .           .   .     .
  |
  |Guitar:2
d||---------------------------------------------------------------------||
a||---------------------------------------------------------------------||
f||---------------------------------------------------------------------||
c||---------------------------------------------------------------------||
g||--------8---8p7---------8---8p7----------8---8p7---------8---8p7-----||
C||--0---0---0-----0-0---0---0-----10-8---8---8-----8-5---5---5-----5---||
pm|      .   .     .     .   .      .     .   .     .     .   .     .


  |Guitar:1
d||--------------------------------------------------------------------||
a||--------------------------------------------------------------------||
f||--------------------------------------------------------------------||
c||--------------------------------------------------------------------||
g||--------5---5p3---------5---5p3p0-------5---5p3p0-------5---5p3-----||
C||--0---0---0-----0-0---0---0-------8---8---8-------5---5---5-----5---||
pm|      .   .     .     .   .           .   .           .   .     .
  |
  |Guitar:2
d||----------------------------------------------------------------------||
a||----------------------------------------------------------------------||
f||----------------------------------------------------------------------||
c||-------------------------------------------------------------5h7p5----||
g||--------8---8p7---------8---8p7----------8---8p7---------8---------8--||
C||--0---0---0-----0-0---0---0-----10-8---8---8-----8-5---5---5----------||
pm|      .   .     .     .   .      .     .   .     .     .   .


  |Guitar:1
d||--------------------------------------------------------------------||
a||--------------------------------------------------------------------||
f||--------------------------------------------------------------------||
c||--------------------------------------------------------------------||
g||--------5---5p3---------5---5p3p0-------5---5p3p0-------5---5p3-----||
C||--0---0---0-----0-0---0---0-------8---8---8-------5---5---5-----5---||
pm|      .   .     .     .   .           .   .           .   .     .
  |
  |Guitar:2
d||--------------------------------------------------------------------||
a||--------------------------------------------------------------------||
f||--------------------------------------------------------------------||
c||--------7---7p5---------7---7p5---------7---7p5---------7---7p5-----||
g||--------------------------------8-----------------------------------||
C||--0---0---0-----0-0---0---0-------8---8---8-----8-5---5---5-----5---||
pm|      .   .     .     .   .           .   .     .     .   .     .


  |Guitar:1
d||-----------------------------------------------------------------------||
a||-----------------------------------------------------------------------||
f||-----------------------------------------------------------------------||
c||------------------------------------------------------------2h3p2---2--||
g||--------5---5p3---------5---5p3p0-------5---5p3p0-------5---------3----||
C||--0---0---0-----0-0---0---0-------8---8---8-------5---5---5------------||
pm|      .   .     .     .   .           .   .           .   .
  |
  |Guitar:2
d||-----------------------------------------------------------------------||
a||-----------------------------------------------------------------------||
f||-----------------------------------------------------------------------||
c||--------7---7p5---------7---7p5---------7---7p5---------7---5h7p5---7--||
g||--------------------------------8---------------------------------8----||
C||--0---0---0-----0-0---0---0-------8---8---8-----8-5---5---5------------||
pm|      .   .     .     .   .           .   .     .     .   .




  |Guitar:1n2
d||------------------------------------------------------------------------||
a||------------------------------------------------------------------------||
f||*-----------------------------------------------------------------------||
c||-----------------------7---7--------------------------------------------||
g||*--------------------8-------8----10---------------------8-7-8---8------||
C||---000-000-000-000-7-----8-----10-----000-000-000-000--5-------7---0-0--||
pm|   ... ... ... ...                    ... ... ... ...              . .


  |Guitar:1n2
d||-------------------------------------------------------------------------||X2
a||-------------------------------------------------------------------------||
f||------------------------------------------------------------------------*||
c||----------------------7---7----------------------------------------------||
g||--------------------8-------8----10----------------------8-7-8---8------*||
C||--000-000-000-000-7-----8-----10-----0-0-0-0-0-0-0-0-0-5-------7---0-[0]-||
pm|  ... ... ... ...                    . . . . . . . . .             .  .



  |Guitar:1n2
d||----------------------------------------------------||X2
a||----------------------------------------------------||
f||*--------------------------------------------------*||
c||---0--------------------0---------------------7-----||
g||*--0--------------------0-------------------0---8--*||
C||---0--00000-0-0-0-000-0-0--00000-00000-0000---------||
pm|      ..... . . . ... .    ..... ..... ....




  |Guitar:1
d||------------------------------------------------------------||
a||------------------------------------------------------------||
f||------------------------------------------------------------||
c||--0---------------------7---0--------------------------7----||
g||--0-------------------0---8-0----------10-8-7------------8--||
C||--0--00000-00000-0000-------0--00000-0--------10-8-7-8------||
pm|     ..... ..... ....          ..... .
  |
  |Guitar:2
d||------------------------------------------------------------||
a||------------------------------------------------------------||
f||------------------------------------------------------------||
c||--0---------------------7---0-------------------------------||
g||--0-------------------0---8-0-------------------------------||
C||--0--00000-00000-0000-------0--00000-0--0-----0-----000--0--||
pm|     ..... ..... ....          ..... .  .     .     ...  .



  |Guitar:1
d||-----------------------------------------------------------||
a||-----------------------------------------------------------||
f||-----------------------------------------------------------||
c||--0---------------------7---0------------------------------||
g||--0-------------------0---8-0------------------------------||
C||--0--00000-00000-0000-------0--00000-0--0-----0----000--0--||
pm|     ..... ..... ....          ..... .  .     .    ...  .
  |
  |Guitar:2
d||------------------------------------------------------------||
a||------------------------------------------------------------||
f||------------------------------------------------------------||
c||--0---------------------7---0-------------------------------||
g||--0-------------------0---8-0----------10-8-7---------------||
C||--0--00000-00000-0000-------0--00000-0--------10-8-7-10-7---||
pm|     ..... ..... ....          ..... .





  |Guitar:1n2
d||--------------------------------------------------------------------------||
a||--------------------------------------------------------------------------||
f||*-----------------------------5------------------------------------------*||
c||---8----------10---5---------------0---------10---------------------7-----||
g||*--8----8-7-8----8-5----8-7-8---8-=0---8-7-8----8-7-10-8-7------------8--*||
C||---8---------------5---------------0-----------------------10-8-7-8-------||
pm|                                                                            \
  |                                                                           X2
  |Guitar:3                                                                    /
d||---------------------------------------------------------------------------||
a||---------------------------------------------------------------------------||
f||*-------------------------------------------------------------------------*||
c||---8-8-8-8-8-8-8-8-5-5-5-5-5-5-5-5-0-0-0-0-0-0-0-0-0-10-10-10-10-7-7-7-7---||
g||*--8-8-8-8-8-8-8-8-5-5-5-5-5-5-5-5-0-0-0-0-0-0-0-0-0-10-10-10-10-7-7-7-7--*||
C||---8-8-8-8-8-8-8-8-5-5-5-5-5-5-5-5-0-0-0-0-0-0-0-0-0-10-10-10-10-7-7-7-7---||
pm|



  |Guitar:1n2
d||--------------------------------------------------------------------------||
a||--------------------------------------------------------------------------||
f||------------------------------5-------------------------------------------||
c||---8----------10---5---------------0---------10---------------------7-----||
g||---8----8-7-8----8-5----8-7-8---8-=0---8-7-8----8-7-10-8-7------------8---||
C||---8---------------5---------------0-----------------------10-8-7-8-------||
pm|
  |
  |Guitar:3
d||---------------------------------------------------------------------------||
a||---------------------------------------------------------------------------||
f||-----------10101010--------10101010----------10101010----------------------||
c||---8-8-8-8-x-x-x-x-5-5-5-5-x-x-x-x-0-0-0-0-0-x-x-x-x-10-10-10-10-7-7-7-7---||
g||---8-8-8-8-8-8-8-8-5-5-5-5-8-8-8-8-0-0-0-0-0-8-8-8-8-10-10-10-10-7-7-7-7---||
C||---8-8-8-8---------5-5-5-5---------0-0-0-0-0---------10-10-10-10-7-7-7-7---||
pm|



  |Guitar:1n2
d||--------------------------------------------------------------------------||
a||--------------------------------------------------------------------------||
f||------------------------------5-------------------------------------------||
c||---8----------10---5---------------0---------10---------------------7-----||
g||---8----8-7-8----8-5----8-7-8---8-=0---8-7-8----8-7-10-8-7------------8---||
C||---8---------------5---------------0-----------------------10-8-7-8-------||
pm|
  |
  |Guitar:3
d||--------------------------------------------------------------------------||
a||--------------------------------------------------------------------------||
f||-----------10101010--------9-9-9-9-----------7-7-7-7----------------------||
c||---8-8-8-8-x-x-x-x-5-5-5-5-x-x-x-x-0-0-0-0-0-x-x-x-x-----------x//--x/-x/-||
g||---8-8-8-8-8-8-8-8-5-5-5-5-7-7-7-7-0-0-0-0-0-5-5-5-5----x//--x-x/---------||
C||---8-8-8-8---------5-5-5-5---------0-0-0-0-0----------x-x/----------------||





  |Guitar:1n2
d||------------------------------------||
a||------------------------------------||
f||----------------------------5-------||
c||---8---------10---5-------------0---||
g||---8---8-7-8----8-5---8-7-8---8-0---||
C||---8--------------5-------------0---||
pm|
  |
  |Guitar:3
d||------------------------------------||
a||------------------------------------||
f||------------------------------------||
c||---8-----(8)------5-----(5)-----0---||
g||---8-----(8)------5-----(5)-----0---||
C||---8-----(8)------5-----(5)-----0---||
pm|





  |Guitar:1n2
d||-------------------------------------------------------------------------||X2
a||-------------------------------------------------------------------------||
f||*-----------------------------------------------------------------------*||
c||-----------------------7---7---------------------------------------------||
g||*--------------------8-------8----10---------------------8-7-8---8------*||
C||---000-000-000-000-7-----8-----10-----000-000-000-000--5-------7---0-0---||
pm|   ... ... ... ...                    ... ... ... ...              . .



  |Guitar:1
d||-------------------------------------------------------------------------||
a||-------------------------------------------------------------------------||
f||*-----------------------------------------------------------------------*||
c||-----------------------7---7---------------------------------------------||
g||*--------------------8-------8----10---------------------8-7-8---8------*||
C||---000-000-000-000-7-----8-----10-----000-000-000-000--5-------7---0-0---||
pm|   ... ... ... ...                    ... ... ... ...              . .     \
  |                                                                          X2
  |Guitar:2                                                                   /
d||-------------------------------------------------------------------------||
a||-------------------------------------------------------------------------||
f||*-----------------------------------------------------------------------*||
c||---------------------------------------------------------7-5-7---7-------||
g||*------------------0-5-8---8-5----=7------------------------------------*||
C||---000-000-000-000-------8-----10-----000-000-000-000--5-------7---0-0---||
pm|   ... ... ... ...                    ... ... ... ...              . .





  |Guitar:1n2
d||-----------------------------------------------------------------------||
a||-----------------------------------------------------------------------||
f||*---------------------------5-----------------------------------------*||
c||---8---------10---5-------------0---------10---------------------7-----||
g||*--8---8-7-8----8-5---8-7-8---8-0---8-7-8----8-7-10-8-7------------8--*||
C||---8--------------5-------------0-----------------------10-8-7-8-------||
pm|                                                                         \
  |                                                                         X2
  |Guitar:3                                                                 /
d||-----------------------------------------------------------------------||
a||-----------------------------------------------------------------------||
f||*---------------------------------------------------------------------*||
c||---8--------------5-------------0-------------(0)-------------(0)------||
g||*--8--------------5-------------0-------------(0)-------------(0)-----*||
C||---8--------------5-------------0-------------(0)-------------(0)------||
pm|



  |Guitar:1n2
d||-----------------------------------------------------------------------||
a||-----------------------------------------------------------------------||
f||----------------------------5------------------------------------------||
c||---8---------10---5-------------0---------10---------------------7-----||
g||---8---8-7-8----8-5---8-7-8---8-0---8-7-8----8-7-10-8-7------------8---||
C||---8--------------5-------------0-----------------------10-8-7-8-------||
pm|
  |
  |Guitar:3
d||-----------------------------------------------------------------------||
a||-----------------------------------------------------------------------||
f||-----------------------------------------------------------------------||
c||---8--------------5-------------0-------------(0)-------------(0)------||
g||---8--------------5-------------0-------------(0)-------------(0)------||
C||---8--------------5-------------0-------------(0)-------------(0)------||
pm|
  |
  |Guitar:4
d||-----------------------------------------------------------------------||
a||---15-------------11------------10------------(10)------------(10)-----||
f||---x--------------x-------------x--------------------------------------||
c||---12-------------8-------------7-------------(7)-------------(7)------||
g||-----------------------------------------------------------------------||
C||-----------------------------------------------------------------------||
pm|



  |Guitar:1n2
d||----------------------------------||
a||----------------------------------||
f||----------------------------5-----||
c||---8---------10---5---------------||
g||---8---8-7-8----8-5---8-7-8---8---||
C||---8--------------5---------------||
pm|
  |
  |Guitar:3
d||----------------------------------||
a||----------------------------------||
f||----------------------------------||
c||---8--------------5---------------||
g||---8--------------5---------------||
C||---8--------------5---------------||
pm|
  |
  |Guitar:4
d||----------------------------------||
a||---13-------------11--------------||
f||---x--------------x---------------||
c||---10-------------8---------------||
g||----------------------------------||
C||----------------------------------||
pm|


  |Guitar:1
d||----------------------------------------------------------------------||
a||----------------------------------------------------------------------||
f||----------------------------------------------------------------------||
c||---0-------------------------------8----------------------------------||
g||---0----5---8---5---10---8---7h8p7-8----8---12---10p8-----7---8---7---||
C||---0--0---0---0---0----0---0-------8--8---8----8------8-5---5---5-----||
pm|      .   .   .   .    .   .          .   .    .      . .   .   .
  |
  |Guitar:2
d||----------------------------------------------------------------------||
a||----------------------------------------------------------------------||
f||----------------------------------------------------------------------||
c||---0-------------------------5h7p5-8----------------------------------||
g||---0-----------------0---0---------8----8---12---10p8-----7---8---7---||
C||---0-----------------0---0---------8--8---8----8------8-5---5---5-----||
pm|                                      .   .    .      . .   .   .



  |Guitar:1
d||----------------------------------------------------------------------||
a||----------------------------------------------------------------------||
f||----------------------------------------------------------------------||
c||---0-------------------------------8----------------------------------||
g||---0----5---8---5-7-8-7-5-3-7-5----8----8---12---10p8-----7---8---7---||
C||---0--0---0---0-----------------10-8--8---8----8------8-5---5---5-----||
pm|      .   .   .                       .   .    .      . .   .   .
  |
  |Guitar:2
d||------------------------------------------------------------------------||
a||------------------------------------------------------------------------||
f||------------------------------------------------------------------------||
c||---0-----------------7---------------8----------------------------------||
g||---0----5---8---8-10---10-8-7-10-8-7-8----8---12---10p8-----7---8---7---||
C||---0--0---0---0----------------------8--8---8----8------8-5---5---5-----||
pm|      .   .   .                         .   .    .      . .   .   .


  |Guitar:1n2
d||----------------------------------------------------------------------||
a||----------------------------------------------------------------------||
f||----------------------------------------------------------------------||
c||---0-------------------------------8----------------------------------||
g||---0----5---8---5---10---8---7h8p7-8----8---12---10p8-----7---8---7---||
C||---0--0---0---0---0----0---0-------8--8---8----8------8-5---5---5-----||
pm|      .   .   .   .    .   .          .   .    .      . .   .   .


  |Guitar:1
d||----------------------------------------------------------------------||
a||----------------------------------------------------------------------||
f||----------------------------------------------------------------------||
c||---0-------------------------------8----------------------------------||
g||---0----5---8---5-7-8-7-5-3-7-5----8----8---12---10p8-----7---8---7---||
C||---0--0---0---0-----------------10-8--8---8----8------8-5---5---5-----||
pm|      .   .   .                       .   .    .      . .   .   .
  |
  |Guitar:2
d||------------------------------------------------------------------------||
a||------------------------------------------------------------------------||
f||------------------------------------------------------------------------||
c||---0-----------------7---------------8----------------------------------||
g||---0----5---8---8-10---10-8-7-10-8-7-8----8---12---10p8-----7---8---7---||
C||---0--0---0---0----------------------8--8---8----8------8-5---5---5-----||
pm|      .   .   .                         .   .    .      . .   .   .



  |Guitar:1n2
d||--------------------------------------||
a||--------------------------------------||
f||--------------------------------------||
c||---8----------------------------------||
g||---8----8---12---10p8-----7---8---7---||
C||---8--8---8----8------8-5---5---5-----||
pm|      .   .    .      . .   .   .



  |Guitar:1n2
d||---------------------------------------||
a||---------------------------------------||
f||---------------------------------------||
c||---8-----------------------------------||
g||---8----8---12---10p8-5-5-5-5-5-5-5-5--||
C||---8--8---8----8------5-5-5-5-5-5-5-5--||
pm|      .   .    .      . . . . . . . .



  |Guitar:1n2
d||-------------------------------------||X3
a||-------------------------------------||
f||*-----------------------------------*||
c||-------------------------------------||
g||*--000-000---000-0-000-000-000-000--*||
C||---000-000---000-0-000-000-000-000---||
pm|   ... ...   ... . ... ... ... ...



  |Guitar:1n2
d||-----------------------------------------||
a||-----------------------------------------||
f||-----------------------------------------||
c||---------------------------------<3>b4---||
g||---000-000---000-0-000-000--\\-----------||
C||---000-000---000-0-000-000--\\\----------||
pm|   ... ...   ... . ... ...



  |Guitar:1n2
d||---------------------------------------------------------------------------X2
a||----------------------------------------------------------------------------
f||*---------------------------------------------------------------------------
c||-------------------------------------------------------------------------7-0
g||*-000-000--000-0-000-000--10-8-7----------000-000---000-0-10-8-7----------8-
C||--000-000--000-0-000-000---------10-8-7---000-000---000-0-------10-8-7-8----
pm|   ... ...   ... . ... ...                  ... ...   ... .
  |
  |Guitar:3n4
d||---------------------------------------------------------------------||X2
a||---------------------------------------------------------------------||
f||*-------------------------------------------------------------------*||
c||---------------------------------------------------------------------||
g||*--000-000---000-0-000-000-000-000-000-000---000-0-000-000-000-000--*||
C||---000-000---000-0-000-000-000-000-000-000---000-0-000-000-000-000---||

this took me a loooong time to tab so i hope u like it.

if u have any questions e-mail me at Campkilmyself@yahoo.com

  Visit MetalTabs.com for more metal tablature

bottom separator

Contact Us | Privacy Policy | Disclaimer | Legal Notice
Copyright © 2001-2014 MetalTabs.com. All Rights Reserved.