top separator

Home

Forum

What's New

Submit a Tab

FAQ

Links

Contact Us

Link to Us

MuSpy.com

MetalTabs.com logo

Bands

0-9

A

B

C

D

E

F

G

H

I

J

K

L

M

N

O

P

Q

R

S

T

U

V

W

X

Y

Z

Search

What

Where
 

Burzum - "Feeble Screams From Forests Unknown" Guitar Tab

Plain Text Version
More Burzum Tabs

Hits: 2469
Rated: 3.00 out of 5 (1 vote)
Updated: 2007-02-25 03:02:54

 

By:

sendpm.gif

email.gif

Important note
This tab is available online because we obtained explicit permission from Burzum or their label.


#----------------------------------PLEASE NOTE---------------------------------#
#This file is the author's own work and represents their interpretation of the #
#song. You may only use this file for private study, scholarship, or research. #
#Unless specified otherwise, this is NOT an official tab from the band members.#
#------------------------------------------------------------------------------#

  Visit MetalTabs.com for more metal tablature
  
Artista: Burzum
Canción: Feeble screams from forests unknown
Album: Burzum
Copyright (c) Deathlike Silence Productions - 1992


Transcrita por: Leandro, "The Impaler" (impaler666@gmail.com)
Fecha: 09/02/07
Última modificación: -

*ˇPREGUNTAS O CORRECCIONES A MI CORREO! ˇGRACIAS!*

Notas: En el riff 11, por ejemplo, el ritmo es bastante confuso... Deberán
       sacarlo por uds. mismos. Espero que la tablatura se entienda.

Afinación: Estándar.

Riff 1
Guitarra 1                   x2
e|----------------------------|
G|----------------------------|
G|-----777--------7777-444----|
D|-5---555...-5---5555-222...-|
A|-3-4--------3-4-------------|
E|---2----------2-------------|

Guitarra 2                   x2
e|----------------------------|
B|----------------------------|
G|----------------------------|
D|-5----------5---------------|
A|-3-4-555----3-4-5555-222----|
E|---2-333...---2-3333-000...-|

Riff 2
e|-------------------------------------------|
B|-------------------------------------------|
G|-------------------------------------------|
D|-5-4-77777-8-7777------7-10-9999-8888------|
A|-3-2-55555-6-5555-10-9-5-8--7777-6666-10-9-|
E|------------------8--7----------------8--7-|

e|--------------------------------------------|
B|--------------------------------------------|
G|-----------------------------------10101010-|
D|-77777-8-7777------7-10-9999-8888--8-8-8-8--|
A|-55555-6-5555-10-9-5-8--7777-6666-----------|
E|--------------8--7--------------------------|

e|---------------------------------------|
B|---------------------------------------|
G|---------------------------------------|
D|-77777-8-7777------7-10-9999-8888------|
A|-55555-6-5555-10-9-5-8--7777-6666-10-9-|
E|--------------8--7----------------8--7-|

e|----------------------------------|
B|----------------------------------|
G|----------------------------------|
D|-77777-8-7777------7-10-9999-8888-|
A|-55555-6-5555-10-9-5-8--7777-6666-|
E|--------------8--7----------------|

Riff 3                               x4
e|------------------------------------|
B|------------------------------------|
G|------------------------------------|
D|-5-4-------------------444444444444-|
A|-3-2-55555555-33333333-222222222222-|
E|-----33333333-11111111--------------|


Play Riff 2 (0:44)
Play Riff 1 (0:58)


Riff 4 (1:12)
e|----------------------------------------------------------------------------
B|----------------------------------------------------------------------------
G|----------------------------------------------------------------------------
D|-8--8888-999-1010-8--8888-999-1010-8--8888-777-666--6666-777-88-6--6666-777-
A|-8--8888-999-1010-8--8888-999-1010-8--8888-777-666--6666-777-88-6--6666-777-
E|----------------------------------------------------------------------------

x4
--|
--|
--|
88|
88|
--|

Riff 5 (1:50)                                                     x4
e|-----------------------------------------------------------------|
B|-----------------------------------------------------------------|
G|----------------------------------------------------5--555555555-|
D|-8--8888-----888-10101010101010101010--9--999999999\5--555555555-|
A|-6--6666-888-666-8-8-8-8-8-8-8-8-8-8---7--777777777\3--333333333-|
E|---------666-------------------------7-7[let ring...]------------|


Play Riff 4 x2


Riff 6                                   x2
e|---4---1-------4---1----------6-----6---|
B|-----3---1-------3---1----------5-----5-|
G|-----------1-----------1--1/3-----3-----|
D|----------------------------------------|
A|----------------------------------------|
E|-2-----------2--------------------------|
                          x4
e|---------------4---6p4---|
B|----6-----5-/5---5-----5-|
G|------5------------------|
D|-/3-----2----------------|
A|-------------------------|
E|-------------------------|

Riff 7
Guitarra 1
e|----------------------|
B|----------------------|   NOTA: Guitarra 2, una
G|-000...-111...-555...-|   octava más alta.
D|----------------------|
A|----------------------|
E|----------------------|

Riff 8                                        x4
e|---------------------------------------------|
B|---------------------------------------------|
G|-5-555-5--5-4-444-4--4-4-444-4--4-4-444-4--4-|
D|-5-555-5--5-4-444-4--4-4-444-4--4-4-444-4--4-|
A|-3-333-3--3-2-222-2--2-2-222-2--2-2-222-2--2-|
E|---------------------------------------------|

Riff 9                                             x4
e|--------------------------------------------------|
B|--------------------------------------------------|
G|--------------------------------------------------|
D|-6666666-66665-55555-55555-55555-55553-33333-3333-|
A|-6666666-66665-55555-55555-55555-55553-33333-3333-|
E|-4444444-44443-33333-33333-33333-33331-11111-1111-|

Riff 10                x4
e|-----------------------|
B|-----------------------|
G|-----------------------|
D|-6-666-6-6-6-5----3----|
A|-6-666-6-6-6-5----3----|
E|-4-444-4-4-4-3----1----|


Riff 10a
e|--------------------------|
B|--------------------------|
G|--------------------------|
D|-6-666-6-6-6-3------------|
A|-6-666-6-6-6-3-[let ring]-|
E|-4-444-4-4-4-1------------|

Riff 11 (4:35)
Guitarra 2
e|-----------------|
B|-----------------| NOTA: Este riff debe tocarse hasta
G|-----------------| que termine el riff 12 (1ra guitarra).
D|-5555------------|
A|-3333...-4444----|
E|---------2222...-|

Riff 12 (5:11)
Guitarra 1                                                         x2
e|-------------------------------------------------------------------|
B|-------------------------------------------------------------------|
G|---------55555555--------55555555---------66666666--------66666666-|
D|-33333333555555553333333355555555-44444444666666664444444466666666-|
A|-33333333333333333333333333333333-44444444444444444444444444444444-|
E|-11111111--------11111111---------22222222--------22222222---------|


Riff 13                                                            x2
e|-------------------------------------------------------------------|
B|-------------------------------------------------------------------|
G|---------77777777--------77777777---------88888888--------88888888-|
D|-55555555555555555555555555555555-66666666666666666666666666666666-|
A|-33333333--------33333333---------44444444--------44444444---------|
E|-------------------------------------------------------------------|


Play Riff 12 x4


Riff 14
Guitarra 2
e|---------------------------------------------------------------------------|
B|---------------------------------------------------------------------------|
G|---------------------------------------------------------------------------|
D|-8-888888888-11-111111111111111111-8-8888888101010/11-11111111111111111111-|
A|-8-888888888-9--9-9-9-9-9-9-9-9-9--8-8888888-8-8-8/9--9-9-9-9-9-9-9-9-9-9--|
E|---------------------------------------------------------------------------|

  Visit MetalTabs.com for more metal tablature

bottom separator

Contact Us | Privacy Policy | Disclaimer | Legal Notice
Copyright © 2001-2014 MetalTabs.com. All Rights Reserved.