top separator

Home

Forum

What's New

Submit a Tab

FAQ

Links

Contact Us

Link to Us

MetalTabs.com logo

Bands

0-9

A

B

C

D

E

F

G

H

I

J

K

L

M

N

O

P

Q

R

S

T

U

V

W

X

Y

Z

Search

What

Where
 

Antaeus - "Daemon (live)" Guitar Tab

Plain Text Version
More Antaeus Tabs

Hits: 2321
Rated: 5.00 out of 5 (3 votes)
Updated: 2007-03-12 23:16:32

 

By:

Wolfsherz

sendpm.gif

email.gif

Important note
This tab is available online because we obtained explicit permission from Antaeus or their label.


#----------------------------------PLEASE NOTE---------------------------------#
#This file is the author's own work and represents their interpretation of the #
#song. You may only use this file for private study, scholarship, or research. #
#Unless specified otherwise, this is NOT an official tab from the band members.#
#------------------------------------------------------------------------------#

  Visit MetalTabs.com for more metal tablature
  
Band:  Antaeus
Album: Cut Your Flesh and Worship Satan
Song:  Daemon (live)*

* studio track is on the Encyclopaedia Pestilentia compilation CD

Copyright (c)  Baphomet Records 2000

Transcribed By: Wolfsherz/Jens Cautereels
Email:          cautereels.jens@gmail.com

Tuning: DGCFAd

d ---------------------------------------------------------------
A ---------------------------------------------------------------
F ---------------------------------------------------------------
C -5-55-66-55--99-88-66-88---------------------------------------
G -5-55-66-55--99-88-66-88---------------------------------------
D -3-33-44-33--77-66-44-66--------------------------------------- x10

d ---------------------------------------------------------------
A ---------------------------------------------------------------
F ---------------------------------------------------------------
C ---------------------------------------------------------------
G -88888888-12121313-11111212------------------------------------
D -66666666-10101010-9-9-9-9------------------------------------- x8

d ---------------------------------------------------------------
A ---------------------------------------------------------------
F ---------------------------------------------------------------
C -10101010999955555444-10101010999955558888---------------------
G -8-8-8-8-777733333222-8-8-8-8-777733336666---------------------
D --------------------------------------------------------------- x4

d ---------------------------------------------------------------
A ---------------------------------------------------------------
F ---------------------------------------------------------------
C ---------------------------------------------------------------
G -88888888-12121313-11111212------------------------------------
D -66666666-10101010-9-9-9-9------------------------------------- x8

d ---------------------------------------------------------------
A ---------------------------------------------------------------
F ---------------------------------------------------------------
C -10101010999955555444-10101010999955558888---------------------
G -8-8-8-8-777733333222-8-8-8-8-777733336666---------------------
D --------------------------------------------------------------- x6


Bridge:
d ---------------------------------------------------------------r
A ---------------------------------------------------------------i
F ---------------------------------------------------------------f
C ---8888-11111111-8888--7777-10101010-8888----------------------f
G -88------------------88----------------------------------------
D ---------------------------------------------------------------A
	        4 elevens
d ---------------------------------------------------------------r
A ---------------------------------------------------------------i
F ---------------------------------------------------------------f
C ---8888-11111111-8888--8888-11111111-10101010------------------f
G -88------------------88----------------------------------------
D ---------------------------------------------------------------B
	        4 elevens		4 elevens/tens
Repeat last two 2 times

d ---------------------------------------------------------------r
A ---------------------------------------------------------------i
F  ---8888-11111111-8888--7777-10101010-8888---------------------f
C -88------------------88----------------------------------------f
G ---------------------------------------------------------------
D ---------------------------------------------------------------C
		4 elevens
d ---------------------------------------------------------------r
A ---------------------------------------------------------------i
F ---8888-11111111-8888--8888-11111111-10101010------------------f
C -88------------------88----------------------------------------f
G ---------------------------------------------------------------
D ---------------------------------------------------------------D
	        4 elevens		4 elevens/tens
Repeat last two 2 times
Repeat riffs A 'till D 2 more times
During this bridge guitar 2 plays:
d ---------------------------------------------------------------
A ---------------------------------------------------------------
F ---------------------------------------------------------------
C ---------------------------------------------------------------
G -88888888-1010101010101010-1111111111111111-101110-------------
D -66666666-8-8-8-8-8-8-8-8--9-9-9-9-9-9-9-9--8-9-8--------------
  During riff A and B

d ---------------------------------------------------------------
A ---------------------------------------------------------------
F ---------------------------------------------------------------
C ---------------------------------------------------------------
G 666666668888888899999999-1313-1111-99-88-----------------------
D ---------------------------------------------------------------
  During riff C and D

After bridge:
(both guitars)
d ---------------------------------------------------------------
A ---------------------------------------------------------------
F ---------------------------------------------------------------
C ---------------------------------------------------------------
G -88888888-1010101010101010-1111111111111111-101110-------------
D -66666666-8-8-8-8-8-8-8-8--9-9-9-9-9-9-9-9--8-9-8-------------- x2

d ---------------------------------------------------------------
A ---------------------------------------------------------------
F ---------------------------------------------------------------
C ---------------------------------------------------------------
G 666666668888888899999999-1313-1111-99-88-----------------------
D --------------------------------------------------------------- x2

d ---------------------------------------------------------------
A ---------------------------------------------------------------
F ---------------------------------------------------------------
C ---------------------------------------------------------------
G -88888888-12121313-11111212------------------------------------
D -66666666-10101010-9-9-9-9------------------------------------- x8

d ---------------------------------------------------------------
A ---------------------------------------------------------------
F ---------------------------------------------------------------
C ---------------------------------------------------------------
G -8-88-7-77-11-1111-55-66---------------------------------------
D -6-66-5-55-9--9-9--33-44--------------------------------------- x6

d ---------------------------------------------------------------
A ---------------------------------------------------------------
F ---------------------------------------------------------------
C ---------------------------------------------------------------
G -888888888877777777111111111111111155556666--------------------
D -6666666666555555559-9-9-9-9-9-9-9-33334444-------------------- x4

d ---------------------------------------------------------------
A ---------------------------------------------------------------
F ---------------------------------------------------------------
C ---------------------------------------------------------------
G -8-88-7-77-11-1111-55-66---------------------------------------
D -6-66-5-55-9--9-9--33-44--------------------------------------- x3

  Visit MetalTabs.com for more metal tablature

bottom separator

Contact Us | Privacy Policy | Disclaimer | Legal Notice
Copyright © 2001-2014 MetalTabs.com. All Rights Reserved.