top separator

Home

Forum

What's New

Submit a Tab

FAQ

Links

Contact Us

Link to Us

MetalTabs.com logo

Bands

0-9

A

B

C

D

E

F

G

H

I

J

K

L

M

N

O

P

Q

R

S

T

U

V

W

X

Y

Z

Search

What

Where
 

Warlock - "Für Immer" Guitar Tab

Plain Text Version
More Warlock Tabs

Hits: 3847
Rated: 4.50 out of 5 (2 votes)
Updated: 2007-02-14 01:31:04

 

By:

zerofret

sendpm.gif

email.gif

Important note
We did our best to reach Warlock and ask for their permission to publish this tab. Unfortunately they did not respond to our requests or we could not find a way to contact them. This tab is available online until Warlock tells us to take it down.


#----------------------------------PLEASE NOTE---------------------------------#
#This file is the author's own work and represents their interpretation of the #
#song. You may only use this file for private study, scholarship, or research. #
#Unless specified otherwise, this is NOT an official tab from the band members.#
#------------------------------------------------------------------------------#

  Visit MetalTabs.com for more metal tablature
  
-----------------------------------------------------------------------------
                          FÜR IMMER - Warlock
-----------------------------------------------------------------------------

Written by: D.Pesch/J.Balin
Album: "Triumph And Agony"      (1987, Phonogram GmbH/Polygram Records)
Guitarists: Tommy Bolan, Niko Arvanitis

Tabbed by: A.Drury   (zerofret)
E-mail: zerofret_ad@hotmail.com
Date: February 9, 2007

INTRO:

   Bm                                  Bm       A        G       F#m
 E -----------------|-----------------|-----------------|-----------------|
 B -15--14----------|-12~~------------|-15--14----------|-12~-----14~-----|
 G ---------14--11--|-----------------|---------14--11--|-----------------|
 D -----------------|-----------------|-----------------|-----------------|
 A -----------------|-----------------|-----------------|-----------------|
 E -----------------|-----------------|-----------------|-----------------|


   E
 E -----------------|-----------------|
 B -12--------------|-----------------|
 G -----------------|-----------------|
 D -14--------------|-----------------|
 A -----------------|-----------------|
 E -----------------|-----------------|


1ST VERSE:

   E5       F5       G5       A5       C5   G5  E5       F5           G5
 E -----------------|-----------------|-----------------|-----------------|
 B -----------------|-----------------|-----------------|-----------------|
 G -----------------|---------2-------|-5---------------|-----------------|2x
 D -2-------3-------|-5-------2-------|-5---5---2-------|-3-----------5---|
 A -2-------3-------|-5-------0-------|-3---5---2-------|-3-----------5---|
 E -0-------1-------|-3---------------|-----3---0-------|-1-----------3---|

1. Bleib'...
2. Keine...


   A5                F5                D5                E5
 E -----------------|-----------------|-----------------|-----------------|
 B -----------------|-----------------|-----------------|-----------------|
 G -2---------------|-----------------|-7---------------|-9---------------|
 D -2---------------|-3---------------|-7---------------|-9---------------|
 A -0---------------|-3---------------|-5---------------|-7---------------|
 E -----------------|-1---------------|-----------------|-----------------|
   Freunde...                                     ...für immer


CHORUS 1:

   B5       F#5      G5           A5
 E -----------------|-----------------|
 B -----------------|-----------------|
 G -4---------------|-------------2---|   2x
 D -4-------4-------|-5-------5---2---|
 A -2-------4-------|-5-------5---0---|
 E ---------2-------|-3-------3-------|
   Deep...                ...Für Immer


   B5       A5       G5      F#5       E5
 E -----------------|-----------------|-----------------|-----------------|
 B -----------------|-----------------|-----------------|-----------------|
 G -4-------2-------|-----------------|-----------------|-----------------|
 D -4-------2-------|-5-------4-------|-2-------------2-|-2---------------|
 A -2-------0-------|-5-------4-------|-2-------------2-|-2---------------|
 E -----------------|-3-------2-------|-0-------------0-|-0---------------|
   Deep...                          ...me


Then: 2ND VERSE   (played same as 1st Verse)


CHORUS 2:

   B5       F#5      G5           A5
 E -----------------|-----------------|
 B -----------------|-----------------|
 G -4---------------|-------------2---|   2x
 D -4-------4-------|-5-------5---2---|
 A -2-------4-------|-5-------5---0---|
 E ---------2-------|-3-------3-------|
   Deep...


   B5       A5       G5       A5
 E -----------------|-----------------|
 B -----------------|-----------------|
 G -4-------2-------|---------2-------|
 D -4-------2-------|-5-------2-------|
 A -2-------0-------|-5-------0-------|
 E -----------------|-3---------------|
   Deep...          |                 |
                    |                 |
                    |(solo)     +     |
                    |-----------------|
                    |-----------------|
                    |-----------10-12-|
                    |-------/12-------|
                    |-----------------|
                    |-----------------|


GUITAR SOLO:   (w/ delay)

   D5                                Bb5
 E ---------------------------10----|---------------------------------|
 B ------------------------------10-|-13^w-~~-----------------/-15-18-|
 G -12^w-~~-------------------------|---------------------------------|
 D ---------------------------------|---------------------------------|
 A ---------------------------------|---------------------------------|
 E ---------------------------------|---------------------------------|


   G5                                C5               A5
 E ---------------------------------|---------------------------------|
 B -18^w-~~-------------------------|---------------------------15----|
 G ------------------------------12-|-14-\/-\/-\/-\/-\/-\/-\----------|
 D ---------------------------15----|------------------------------15-|
 A ---------------------------------|---------------------------------|
 E ---------------------------------|---------------------------------|
                                         (trem bar dips/1 tone)

   D5                                Bb5
 E ---------------------------------|---------------------------------|
 B ------------------------------13-|-13h15~~-------------------17h18-|
 G --------------------------/14----|---------------------------------|
 D -15^q--12-~~---------------------|---------------------------------|
 A ---------------------------------|---------------------------------|
 E ---------------------------------|---------------------------------|


   C5                                A5
 E ---------------------------------|---------------------------------|
 B ---------------------------17-18-|-20^w-~~-------------------------|
 G -19~~----------------------------|---------------------------------|
 D ---------------------------------|---------------------------------|
 A ---------------------------------|---------------------------------|
 E ---------------------------------|---------------------------------|


3RD VERSE:

   Dm                C                 Bb                A
 E -----------------|-----------------|-----------------|-----------------|
 B -3---3---3---3---|-3---3---3---3---|-3---3---3---3---|-3---3---3---3---|
 G -----------------|-----------------|-----------------|-----------------|
 D -----------------|-----------------|-----------------|-----------------|
 A -5---5---5---5---|-3---3---3---3---|-1---1---1---1---|-0---0---0---0---|
 E -----------------|-----------------|-----------------|-----------------|
   message...


   Dm                C                 Bb                A
 E -----------------|-----------------|-1---1---1---1---|-3---3---0---0---|
 B -3---3---3---3---|-5---5---5---5---|-----------------|-----------------|
 G -----------------|-----------------|-----------------|-----------------|
 D -----------------|-----------------|-----------------|-----------------|
 A -5---5---5---5---|-3---3---3---3---|-1---1---1---1---|-0---0---0---0---|
 E -----------------|-----------------|-----------------|-----------------|
   immer...


Play CHORUS 2


OUTRO:

        B5           F#5             G5                       A5
 E ----|----------------------------|---------------------------------|
 B ----|----------------------------|---------------------------------|
 G ----|----------------------------|---------------------------------|
 D -7-/|-(14)~~------------12-12-11-|-12~--\(9)~~------12-11--9~------|
 A ----|----------------------------|---------------------------------|
 E ----|----------------------------|---------------------------------|


   B5            F#5                 G5                                A5
 E --------------------------/17-14-|------14------17-14------14-14--------|
 B -15-----------16p15--------------|-17^w----17^w-------17^w-------17^w---|
 G -----16--16---------16--16-------|--------------------------------------|
 D ---------------------------------|--------------------------------------|
 A ---------------------------------|--------------------------------------|
 E ---------------------------------|--------------------------------------|


   B5                  A5                  G5                A5
 E ----------------------------19~-----19-|-22^w-~~----22^w--22~~----------|
 B -19----------22^w---22=^wr------/22----|--------------------------------|
 G ----21^wr-19---------------------------|--------------------------------|
 D ---------------------------------------|--------------------------------|
 A ---------------------------------------|--------------------------------|
 E ---------------------------------------|--------------------------------|


   B5              F#5               G5  +                    A5
 E ---------------------------------|---------------------------------|
 B -15^q----------------------15-17-|-17^w-------15-17-17^w-----------|
 G --------16~~---------------------|---------------------------------|
 D ---------------------------------|---------------------------------|
 A ---------------------------------|---------------------------------|
 E ---------------------------------|---------------------------------|

(fade)

-----------------------------------------------------------------------------
Notes:
-Bar lines indicate measures of 4/4 time
-The only guitar parts in this song are the Guitar Solo and the Outro. All
 other parts of this tab are keyboard and orchestration transcribed for
 guitar.
-My guitar tab web page - http://www.angelfire.com/planet/zerofret/

^...bend (w=whole tone,q=quarter)         /...slide up
r...release bend                          \...slide down
p...pull off                              =...hold note
~...vibrato                               +...pinch harmonic

(This file is the transcriber's own work and represents
their interpretation of the song.)

  Visit MetalTabs.com for more metal tablature

bottom separator

Contact Us | Privacy Policy | Disclaimer | Legal Notice
Copyright © 2001-2014 MetalTabs.com. All Rights Reserved.