top separator

Home

Forum

What's New

Submit a Tab

FAQ

Links

Contact Us

Link to Us

MetalTabs.com logo

Bands

0-9

A

B

C

D

E

F

G

H

I

J

K

L

M

N

O

P

Q

R

S

T

U

V

W

X

Y

Z

Search

What

Where
 

Naglfar - "Vittra" Guitar Tab

Plain Text Version
More Naglfar Tabs

Hits: 3316
Rated: 4.12 out of 5 (8 votes)
Updated: 2007-03-05 01:28:55

 

By:

darkonion

sendpm.gif

email.gif

Important note
This tab is available online because we obtained explicit permission from Naglfar or their label.


#----------------------------------PLEASE NOTE---------------------------------#
#This file is the author's own work and represents their interpretation of the #
#song. You may only use this file for private study, scholarship, or research. #
#Unless specified otherwise, this is NOT an official tab from the band members.#
#------------------------------------------------------------------------------#

  Visit MetalTabs.com for more metal tablature
  
Band:  Naglfar
Album: Vittra
Song:  Vittra

Copyright (c)  Regain 1998
Version 1.0 - 2/10/07

Transcribed By: Paul Rose
Email:          Darkoniontabs@gmail.com


.  - palm mute           /  - slide up to
  - slide down to       ~  - vibrato
h  - hammer on           b  - Bend
p  - pull off            Suffixes for bend
t  - tap                 f  - full bend    h - half bend
ph - pinched harmonic    q  - quarter bend t - tap bend
*  - see comment         ^  - Hold bend    r release bend
x  - Stuccatto           ~  - vibrato bend
,  - slight palm mute    () - ghost note, sustained note
"  - tremolo note        <> - Trill

Tuning E A D G B E


Riff 1a(acoustic)            Riff 1b(acoustic)Riff 1c (electric)
|------------------------|   |------------|   |----------------------|
|------------------------|   |------------|   |----------------------|
|----2-4-4-0---5-5-4-4---|   |----2-4-4---|   |--0-2-0---------------|
|--2---------------------|   |--2---------|   |--------4-5-4-0-4-2---|
|------------------------|   |------------|   |----------------------|
|------------------------|   |------------|   |----------------------|

Riff 2a(acoustic)              Riff 2b(acoustic)    Riff 2c(acoustic)
|--------------------------|   |----------------|   |-------|
|--------------------------|   |----------------|   |-------|
|----2-4-4-5-4-2-0-2-------|   |------2---------|   |-------|
|--2-----------------4-4---|   |--4-5---5-4-5---|   |--4~---|
|--------------------------|   |----------------|   |-------|
|--------------------------|   |----------------|   |-------|

Riff 3(acoustic)                          Filler (electric)
|-------------------------------------|   |------------|
|-------------------------------------|   |------------|
|-------------------------------------|   |------------|
|----4/5---42---4/5-7-5-4-5-4-0-4-2---|   |--2---2-2---|
|-------------------------------------|   |--2---2-2---|
|--0-----0-----0----------------------|   |--0---0-0---|

Riff 4(electric)
|----------------------------------------------------|
|------------------3---------------------------------|
|----2-4-4-0-2-4-5---5-4---2-4-4-0-2-0---------------|
|--2---------------------2-------------4-5-4-0-4-2---|
|----------------------------------------------------|
|----------------------------------------------------|

Riff 5(acoustic)[guitar 2 plays this through the beginning]
|------------------------------|
|------------------------------|
|----2-4-4~---0-2-2~-2/4-0-2---|
|--2--------2------------------|
|------------------------------|
|------------------------------|


Play:
[start at] Riff1a + Riff1b X2
Riff2a + Riff2b + Riff2a + Riff2c
Riff1a + Riff1a + Riff1a + Riff1b X2
Riff3 X2
Riff3 + Filler X2
Riff4 X4
Riff1a + Riff1b + Riff1c X4 (electric)
Riff2a + Riff2b + Riff2a + Riff2c X2
Riff5 [to end]

my only notes on this is that you can listen to the song and get the slide that
the second guitar is playing during the acoustic part and add that to your
playingthe first guitar part...  this is my favorite Naglfar song... so rate it
up guys... what do you think?... i would love some feedback on this... so im off
to tab out more Naglfar... you'll be seeing more from me... just dont forget to
rate this at the top of this page...

  Visit MetalTabs.com for more metal tablature

bottom separator

Contact Us | Privacy Policy | Disclaimer | Legal Notice
Copyright © 2001-2014 MetalTabs.com. All Rights Reserved.