top separator

Home

Forum

What's New

Submit a Tab

FAQ

Links

Contact Us

Link to Us

MetalTabs.com logo

Bands

0-9

A

B

C

D

E

F

G

H

I

J

K

L

M

N

O

P

Q

R

S

T

U

V

W

X

Y

Z

Search

What

Where
 

Rotten Sound - "Seeds" Guitar Tab

Plain Text Version
More Rotten Sound Tabs

Hits: 3343
Rated: 5.00 out of 5 (6 votes)
Updated: 2007-02-14 01:24:24

 

By:

sendpm.gif

email.gif

Important note
This tab is available online because we obtained explicit permission from Rotten Sound or their label.


#----------------------------------PLEASE NOTE---------------------------------#
#This file is the author's own work and represents their interpretation of the #
#song. You may only use this file for private study, scholarship, or research. #
#Unless specified otherwise, this is NOT an official tab from the band members.#
#------------------------------------------------------------------------------#

  Visit MetalTabs.com for more metal tablature
  
Band: Rotten Sound
Album: Murderworks
Song: Seeds

Copyright (c) - Deathvomit Records, Necropolis Records (2002)
Version 1.0 02/06/07

Transcribed By: Gleb Kanasevich
E-mail adress - glebvic@yahoo.com

Tuning: A E A D F# B

Riff A (One Guitar Only)
|------------------------------------------------|
|------------------------------------------------|
|------------------------------------------------|
|14-14-14-15-14-14-14-14-15-15-12-12-15-14-15-17-|
|14-14-14-15-14-14-14-14-15-15-12-12-15-14-15-17-|
|14-14-14-15-14-14-14-14-15-15-12-12-15-14-15-17-|X4

(Pickup For Both Guitars)
|------------|
|------------|
|------------|
|15-14-15-17-|
|15-14-15-17-|
|15-14-15-17-|

Riff A (Both Guitars) X8

Riff B
|(X4)--------------------|(end 1,2,3)|(4th end)|
|------------------------|-----------|---------|
|7-7-8-7-7-------10101111|-----------|---------|
|7-7-8-7-7-0-0-0-10101111|3-3-6-6----|5-3-5-6--|
|5-5-6-5-5-0-0-0-8-8-9-9-|3-3-6-6----|5-3-5-6--|
|----------0-0-0---------|3-3-6-6----|5-3-5-6--| X1

Riff A X8
Riff B X2

Riff C (First two times just one guitar)
|--------------------------|
|--------------------------|
|7----87-87-----7---87-8---|
|7----87-87-0-0-7---87-836-|
|5----65-65-0-0-5---65-636-|
|-----------0-0---------36-| X10

Riff B X1
Riff A X8
Riff B X2

|Last Ending-----------|
|----------------------|
|7---878-----8-7-------|
|7---878-0---8-7-------|
|5---656-0---6-5-------|
|--------0-------------|

END

  Visit MetalTabs.com for more metal tablature

bottom separator

Contact Us | Privacy Policy | Disclaimer | Legal Notice
Copyright © 2001-2014 MetalTabs.com. All Rights Reserved.