top separator

Home

Forum

What's New

Submit a Tab

FAQ

Links

Contact Us

Link to Us

MuSpy.com

MetalTabs.com logo

Bands

0-9

A

B

C

D

E

F

G

H

I

J

K

L

M

N

O

P

Q

R

S

T

U

V

W

X

Y

Z

Search

What

Where
 

Secrets of the Moon - "Psychoccult Hymn" Bass Tab

Plain Text Version
More Secrets of the Moon Tabs

Hits: 2635
Rated: 4.67 out of 5 (3 votes)
Updated: 2007-02-14 01:23:26

 

By:

Wolfsherz

sendpm.gif

email.gif

Important note
This tab is available online because we obtained explicit permission from Secrets of the Moon or their label.


#----------------------------------PLEASE NOTE---------------------------------#
#This file is the author's own work and represents their interpretation of the #
#song. You may only use this file for private study, scholarship, or research. #
#Unless specified otherwise, this is NOT an official tab from the band members.#
#------------------------------------------------------------------------------#

  Visit MetalTabs.com for more metal tablature
  
Band:  Secrets of the Moon
Album: Carved in Stigmata Wounds
Song:  Psychoccult Hymn
Copyright (c) Lupus Lounge 2004

Transcribed By: Wolfsherz
Email:          cautereels.jens@gmail.com

Tuning: EADG

G ---------------------------------------------------------------
D ---------------------------------------------------------------
A --4--5--7--8---------------------------------------------------
E ---------------------------------------------------------------

G ---------------------------------------------------------------
D ---------------------------------------------------------------
A --555575555-44557788-------------------------------------------
E --------------------------------------------------------------- x3

G ---------------------------------------------------------------
D ---------------------------------------------------------------
A --555575555--4-5-7-8---4-5-7-8---------------------------------
E ---------------------------------------------------------------

Repeat last two 2 times

G ---------------------------------------------------------------
D ---------------------------------------------------------------
A --555575555-44557788-------------------------------------------
E ---------------------------------------------------------------

G ---------------------------------------------------------------
D ---------------------------------------------------------------
A --555575555--4-5-7-8---4-5-7-8---------------------------------
E ---------------------------------------------------------------


G ---------------------------------------------------------------
D ---------------------------------------------------------------
A --5----5----5----5----5----5-----------------------------------
E ----4----4----4----4----4----4---------------------------------

G ---------------------------------------------------------------
D ---------------------------------------------------------------
A --55555-------555555-------------------------------------------
E -------4-4-4-4------4-4-4-4--4--------------------------------- x5

G ---------------------------------------------------------------
D ---------------------------------------------------------------
A --88--77-------------------------------------------------------
E ---------------------------------------------------------------


G ---------------------------------------------------------------
D --6-7----7-9----9-10------------------14-----------------------
A ---------------------------------------------------------------
E --------------------------------------------------------------- x8

G ---------------------------------------------------------------
D --6-7------7-9------9-10------------------14-------------------
A ---------------------------------------------------------------
E ------3-2------3-2--------------------------------------------- x2
   "As he grasps for worms creeping on ashes"
		"The last supper, the last power of reasoning"
G ---------------------------------------------------------------
D ---------------------------------------------------------------
A ---------------------------------------------------------------
E --6-5---3-5----6--5---1-0-------------------------------------- x2


G ---------------------------------------------------------------
D -----------------------------------------------999999----------
A --------10-9------999999-------10-9------999999----------------
E --10-7-------10-7---------10-7------10-7----------------------- x2
       "Disembowelment-Obscene visions"
G -----------------------------------------------------888888----
D -----------------------------------------------999999----------
A --------10-9------999999-------10-9------999999----------------
E --10-7-------10-7---------10-7------10-7-----------------------
					  "of our central figure"

Repeat last two 2 times

G ---------------------------------------------------------------
D ---------------------------------------------------------------
A ---------------------------------------------------------------
E --5-------5-------5(let ring)---5----5555555555-5---5-5-5-5----
					              (drum part)
G ---------------------------------------------------------------
D ---------------------------------------------------------------
A -------------66666666---------------------666666665555-6-5-3---
E 5555555666666--------5-5-5--55555556666666-------------------6- x2

G ---------------------------------------------------------------
D --------------------------55557777-----------------------------
A -8888888885555555588888888-------------------------------------
E --------------------------------------------------------------- x4
   "He is standing breathless-helpless-and worthless"

G ---------------------------------------------------------------
D ---------------------------------------------------------------
A ---------------------------------------------------------------
E --5-------5-------5555555555555555-5-5-55----------------------

G ---------------------------------------------------------------
D ---------------------------------------------------------------
A -------------66666666---------------------666666665555-6-5-3---
E 5555555666666--------5-5-5--55555556666666-------------------6- x2

G ---------------------------------------------------------------
D --------------------------55557777-----------------------------
A -8888888885555555588888888-------------------------------------
E --------------------------------------------------------------- x4
				"swallowed by - the extravagant"

G ---------------------------------------------------------------
D ---------------------------------------------------------------
A -------------------------88888888------------------------------
E 4-55555557777777788888888-----------4-5---444-5----------------

G ---------------------------------------------------------------
D ---------------------------------------------------------------
A -------------------------88888888------------------------------
E 4-55555557777777788888888-------------------------------------- x4

G ---------------------------------------------------------------
D ---------------------------------------------------------------
A ---------------------------------------------------------------
E --6-5---3-5---6--5---1-0---6665555555-3335555555-66665555---1-0 x2


G ---------------------------------------------------------------
D -----------------------------------------------999999----------
A --------10-9------999999-------10-9------999999----------------
E --10-7-------10-7---------10-7------10-7----------------------- x3

G ---------------------------------------------------------------
D -----------------------------------------------999999----------
A --------10-9------999999-------10-9------999999----------------
E --10-7-------10-7---------10-7------10-7-----------------------

G ---------------------------------------------------------------
D ---------------------------------------------------------------
A --------10-9-------10-9-------9999999--------------------------
E --10-7-------10-7-------10-7-----------------------------------

G ---------------------------------------------------------------
D ---------------------------------------------------------999999
A --------10-9------999999-------10-9------10-9------999999------
E --10-7-------10-7---------10-7------10-7------10-7-------------

G ---------------------------------------------------------------
D ---------------------------------------------------------------
A --------10-9-------10-9-------9--------------------------------
E --10-7-------10-7-------10-7-----------------------------------

  Visit MetalTabs.com for more metal tablature

bottom separator

Contact Us | Privacy Policy | Disclaimer | Legal Notice
Copyright © 2001-2014 MetalTabs.com. All Rights Reserved.