top separator

Home

Forum

What's New

Submit a Tab

FAQ

Links

Contact Us

Link to Us

MuSpy.com

MetalTabs.com logo

Bands

0-9

A

B

C

D

E

F

G

H

I

J

K

L

M

N

O

P

Q

R

S

T

U

V

W

X

Y

Z

Search

What

Where
 

Onslaught (UK) - "Killing Peace" Guitar Tab

Plain Text Version
More Onslaught (UK) Tabs

Hits: 2700
Updated: 2007-02-14 01:21:52

 

By:

Dahmers Fridge

sendpm.gif

email.gif

Important note
This tab is available online because we obtained explicit permission from Onslaught (UK) or their label.


#----------------------------------PLEASE NOTE---------------------------------#
#This file is the author's own work and represents their interpretation of the #
#song. You may only use this file for private study, scholarship, or research. #
#Unless specified otherwise, this is NOT an official tab from the band members.#
#------------------------------------------------------------------------------#

  Visit MetalTabs.com for more metal tablature
  
Band:  Onslaught
Album: Killing Peace
Song:  Killing Peace

Copyright (c)  (Candlelight) (2007)
Version 1.0 - (05/02/07)

Transcribed By: Steve
Email:          stephen.elvidge1@ntlworld.com


.  - palm mute           /  - slide up to
\  - slide down to       ~  - vibrato
h  - hammer on           b  - Bend
p  - pull off            Suffixes for bend
t  - tap                 f  - full bend    h - half bend
ph - pinched harmonic    q  - quarter bend t - tap bend
*  - see comment         ^  - Hold bend    r release bend
x  - Stuccatto           ~  - vibrato bend
,  - slight palm mute    () - ghost note, sustained note
"  - tremolo note        <> - harmonic
pb - pre bend

Tuning D A D G B E



 Guitar 1
 [-----PM----]
[--------------------|
[--------------------|
[--------------------|
[-------------0-0-0--|
[-------------0-0-0--|
[-0-0000-00-0-0-0-0--|
[Guitar 2
[--------------------|
[--------------------|
[--------------------|
[-------------0-0-0--|
[-------------0-0-0--|
[-------------0-0-0--|Rpt

 [-----PM----]
|--------------------|
|--------------------|
|--------------------|
|-------------0-0-0--|
|-------------0-0-0--|
|-0-0000-00-0-0-0-0--|

 [-----PM----]
|---------------------|
|---------------------|
|---------------------|
|-------------0-0-0-0-|
|-------------0-0-0-0-|
|-0-0000-00-0-0-0-0-0-|

 Main Riff

|-------------------|
|-------------------|
|-------------------|
|-------------------|
|-x\0-6-5-3-5-3-5/6-|
|-x\0-6-5-3-5-3-5/6-|

|-----------------|
|-----------------|
|-----------------|
|-----------------|
|-0-6-5-3-5-3-5/6-|
|-0-6-5-3-5-3-5/6-| Rpt

  [----PM----]
|-----------------|
|-----------------|
|-----------------|
|-----------------|
|-0-6-5-3-5-3-5/6-|
|-0-6-5-3-5-3-5/6-|

 Verse

|-----------------|
|-----------------|
|-----------------|
|-----------------|
|-0-6-5-3-5-3-5/6-|
|-0-6-5-3-5-3-5/6-| Rpt 4 X


|----------------------------------------|
|----------------------------------------|
|----------------------------------------|
|----------------------------------------|
|----------1-1-1-1-0-0-0-0------------2--|
|-2-2-2-2------------------5-5-5-5-22-2--|

|------------------------------------|
|------------------------------------|
|------------------------------------|
|------------------------------------|
|----------1-1-1-1-0-0-0-0-----------|
|-2-2-2-2------------------5-5-5-5-5-|

|-----------------|
|-----------------|
|-----------------|
|-----------------|
|-0-6-5-3-5-3-5/6-|
|-0-6-5-3-5-3-5/6-| Rpt


 Pre Chorus

|------------------------------|
|------------------------------|
|-7--7-7-----------------------|
|-7--7-7-----------------10\8--|
|-5--5-5-6--6-6--5--5-5--8-\6--|
|-0------6--6-6--5--5-5--------|

|--------------------------------|
|--------------------------------|
|-7--7-7-------------------------|
|-7--7-7-------------------------|
|-5--5-5-6--6-6--5--5-5--3---1-1-|
|-0------6--6-6--5--5-5--3---1-1-|

 Chorus

 [-----PM----]
|--------------------|
|--------------------|
|--------------------|
|-------------0-0-0--|
|-------------0-0-0--|
|-0-0000-00-0-0-0-0--| Rpt 3 X

 [-----PM----]
|----------------|
|----------------|
|----------------|
|-------------0--|
|-------------0--|
|-0-0000-00-0-0--|

 Rpt Main Riff
 Rpt Verse
 Rpt Chorus


 [---------PM-----------]
|------------------------|
|------------------------|
|------------------------|
|------------------------|
|-0--6--5-0-3-0-5--3--5--|
|-0--6--5-0-3-0-5--3--5--| Rpt 7 X


|------------------------|
|------------------------|
|------------------------|
|------------------------|
|-0--6--5-0-3-0-5--3--5--|
|-0--6--5-0-3-0-5--3--5--|


 Guirar 1
  [----------------------PM----------------------]
[--------------------------------------------------------------|
[--------------------------------------------------------------|
[--------------------------------------------------------------|
[--------------------------------------------------------------|
[-------------------------------------------------6\5--6\5-5-6-|
[-0-0-0-0-0-0-0-0-0-0-0-0-0-0-0-0-0-0-0-0-0-0-0-0-6\5--6\5-5-6-|
[Guitar 2
[ [----------------------PM----------------------]
[--------------------------------------------------------------|
[--------------------------------------------------------------|
[--------------------------------------------------------------|
[--------------------------------------------------------------|
[-------------------------------------------------6-5--6-5-5-6-|
[-0-0-0-0-0-0-0-0-0-0-0-0-0-0-0-0-0-0-0-0-0-0-0-0--------------| Rpt 4 X

 [---------PM-----------]
|------------------------|
|------------------------|
|------------------------|
|------------------------|
|-0--6--5-0-3-0-5--3--5--|
|-0--6--5-0-3-0-5--3--5--| Rpt 3 X

|------------------------|
|------------------------|
|------------------------|
|------------------------|
|-0--6--5-0-3-0-5--3--5--|
|-0--6--5-0-3-0-5--3--5--|

 Guitar 1
   [-----------------PM----------------]
[--------------------------------------|
[--------------------------------------|
[--------------------------------------|
[--------------------------------------|
[--------------------------------------|
[-0-6666-5555-3333-5555-3333-5555-6666-|
[Guitar 2
[--------------------------------------|
[--------------------------------------|
[--------------------------------------|
[--------------------------------------|
[-0------------------------------------|
[-0------------------------------------|

   [-----------------PM----------------]
|--------------------------------------|
|--------------------------------------|
|--------------------------------------|
|--------------------------------------|
|--------------------------------------|
|-0-6666-5555-3333-5555-3333-5555-6666-|

 Guitar 1
   [----------------PM----------------]
[--------------------------------------|
[--------------------------------------|
[--------------------------------------|
[--------------------------------------|
[--------------------------------------|
[-0-6666-5555-3333-5555-3333-5555-6666-|
[Guitar 2
[--------------------------------------|
[--------------------------------------|
[--------------------------------------|
[--------------------------------------|
[-0-6----5----3----5----3----5----6----|
[-0-6----5----3----5----3----5----6----| Rpt






 Guitar solo

|-15p13p12-13p12p10/15p13p12-13p12p10/15p13p12-13p12p10/15p13p12-13p12p10-|
|-------------------------------------------------------------------------|
|-------------------------------------------------------------------------|
|-------------------------------------------------------------------------|
|-------------------------------------------------------------------------|
|-------------------------------------------------------------------------|


|-/15p13p12-13p12p10---------------------------------|
|--------------------13p12p10------------------------|
|-----------------------------12p10p9-10p9p7---------|
|--------------------------------------------10-9-7--|
|----------------------------------------------------|
|----------------------------------------------------|

                                      ~~~    ph~~~~
|----------------------------5-8-10fb-----r8----------|
|------------------5-6-8-6-8-----------------10----\--|
|-2-4-5-2-/7-5-4-2------------------------------------|
|-----------------------------------------------------|
|-----------------------------------------------------|
|-----------------------------------------------------|


 Guitar 1
 ph~~~~ph~~~ph~~~ph~~~ph~~~~ph~~~ph~~~ph~~~~
[--------------------------------------------|
[--------------------------------------------|
[-4---/10--\9---\7---\4---/10--\9---\7-------|
[--------------------------------------------|
[--------------------------------------------|
[--------------------------------------------|
[Guitar 2
[                      ~~~~  ~~~~ ~~~ ~~~~
[--------------------------------------------|
[---------------------5---/11--\10--\8-------|
[--------------------------------------------|
[--------------------------------------------|
[--------------------------------------------|
[--------------------------------------------|

       ~~~~~~~
|----------------------------------------------------------------------|
|-----13fb-----13-12--10-13p12p10-12p10p9-9p8p7------------------------|
|-----------------------------------------------10p8p7-8p7p5---5-------|
|-x\---------------------------------------------------------7---8p6p5-|
|-x\-------------------------------------------------------------------|
|-x\-------------------------------------------------------------------|

    ~~~~~~~~~~~~~   ~~~~~~~~~~~~~                            ph~~~
|-10--------------12----------------------------10-----------10----|
|-13b------------r15b-------------10p9p8-10-9-8-----9-10-9-8-------|
|------------------------------------------------------------------|
|------------------------------------------------------------------|
|------------------------------------------------------------------|
|------------------------------------------------------------------|


|--------------------------------------|
|-10p9p8-10-9-8-10p7-7b-7b-trem dive---|
|--------------------------------------|
|--------------------------------------|
|--------------------------------------|
|--------------------------------------|



 Rpt Intro and Pre Chorus 2 X
 Rpt Chorus

END

  Visit MetalTabs.com for more metal tablature

bottom separator

Contact Us | Privacy Policy | Disclaimer | Legal Notice
Copyright © 2001-2014 MetalTabs.com. All Rights Reserved.