top separator

Home

Forum

What's New

Submit a Tab

FAQ

Links

Contact Us

Link to Us

MuSpy.com

MetalTabs.com logo

Bands

0-9

A

B

C

D

E

F

G

H

I

J

K

L

M

N

O

P

Q

R

S

T

U

V

W

X

Y

Z

Search

What

Where
 

Nunslaughter - "Sacrificial Zombie" Guitar Tab

Plain Text Version
More Nunslaughter Tabs

Hits: 2846
Rated: 5.00 out of 5 (1 vote)
Updated: 2007-02-14 01:21:16

 

By:

Evil

sendpm.gif

email.gif

Important note
This tab is available online because we obtained explicit permission from Nunslaughter or their label.


#----------------------------------PLEASE NOTE---------------------------------#
#This file is the author's own work and represents their interpretation of the #
#song. You may only use this file for private study, scholarship, or research. #
#Unless specified otherwise, this is NOT an official tab from the band members.#
#------------------------------------------------------------------------------#

  Visit MetalTabs.com for more metal tablature
  
Band:  Nun Slaughter
Album: Goat
Song:  Sacrificial Zombie


Transcribed By: Evil.
Email:          blackmetal_norway@hotmail.com


Riff 1 x4 Intro.
|-------------------------------------------------------------------|
|-------------------------------------------------------------------|
|-------------------------------------------------------------------|
|-------------------------------------------------------------------|
|-2-----3-----2-----4---3-------------------------------------------|
|-0-----1-----0-----2---1-------------------------------------------|

Riff 2 x3
|-------------------------------------------------------------------|
|-------------------------------------------------------------------|
|-------------------------------------------------------------------|
|-------------------------------------------------------------------|
|-------------------------------------------------------------------|
|-0000000000002222222233333333--------------------------------------|
  ............................
Riff 2 cont.
|-------------------------------------------------------------------|
|-------------------------------------------------------------------|
|-------------------------------------------------------------------|
|-------------------------------------------------------------------|
|-------------------4----3------------------------------------------|
|-0000000000000-----2----1------------------------------------------|
  .............
Riff 3 x 8
|-------------------------------------------------------------------|
|-------------------------------------------------------------------|
|-------------------------------------------------------------------|
|-------------------------------------------------------------------|
|-7---8-------------------------------------------------------------|
|-5---6----0000000000000--------------------------------------------|
           .............

Riff 3 cont.
|-------------------------------------------------------------------|
|-------------------------------------------------------------------|
|-------------------------------------------------------------------|
|-------------------------------------------------------------------|
|-3---2-------------------------------------------------------------|
|-1---0-------------------------------------------------------------|

  Visit MetalTabs.com for more metal tablature

bottom separator

Contact Us | Privacy Policy | Disclaimer | Legal Notice
Copyright © 2001-2014 MetalTabs.com. All Rights Reserved.