top separator

Home

Forum

What's New

Submit a Tab

FAQ

Links

Contact Us

Link to Us

MetalTabs.com logo

Bands

0-9

A

B

C

D

E

F

G

H

I

J

K

L

M

N

O

P

Q

R

S

T

U

V

W

X

Y

Z

Search

What

Where
 

Tristania - "December Elegy" Guitar Tab

Plain Text Version
More Tristania Tabs

Hits: 2733
Updated: 2007-02-25 03:00:06

 

By:

sendpm.gif

email.gif

Important note
This tab is available online because we obtained explicit permission from Tristania or their label.


#----------------------------------PLEASE NOTE---------------------------------#
#This file is the author's own work and represents their interpretation of the #
#song. You may only use this file for private study, scholarship, or research. #
#Unless specified otherwise, this is NOT an official tab from the band members.#
#------------------------------------------------------------------------------#

  Visit MetalTabs.com for more metal tablature
  
Band: Tristania
Album: Widow's Weeds
Song: December Elegy

Version 1.1 (12.02.2007)
Transcribed by: Ice
Any suggestions, improvements: ice-m<at>o2.pl
Enjoy old good Tristania:-)

* - palm mute
s - slide
h - hammer on
Tuning EADGBE

[0:20]
E|-----1---------------1---------------0-----------|
B|-------1---------------1-----------0---0---0-----|
G|---------4-5-4h5---------4-5-4h5-2-------4-------|
D|---2---------------2-----------------------------|
A|-------------------------------------------------|
E|-0---------------0---------------------------3-2-| 2x

[0:39]
E|-----------------------------------1---------------|
B|---------------------3---------------1-------------|
G|-----4-----4-------4-----2-------4---------4-------|
D|---2---2-2---2---2-----0---0---2---------2---2-----|
A|---------------------------------------------------|
E|-0-------------0-------------0---------0-------3-2-| 4x

[1:16]
E|---------------------------|
B|---------------------------|
G|-------------3-4-5-7-4-7-4-|
D|-2-3-5-3-5-2-----------7-4-|
A|-2-3-5-3-5-2-----------5-2-|
E|-0-1-3-1-3-0---------------| 2x
       * * *

[1:44]
E|-------------------------------------------------------|
B|-------------------------------------------------------|
G|-------------------------------------------------------|
D|-2-2-2-2-2-2-2-3-3-3-3-5-3-2-2-2-2-2-2-2-8-8s7-7s5-5s3-|
A|-2-2-2-2-2-2-2-3-3-3-3-5-3-2-2-2-2-2-2-2-8-------------|
E|-0-0-0-0-0-0-0-1-1-1-1-3-1-0-0-0-0-0-0-0-6-------------| 2x
     * * * * * *   * *         * * * * * *

[2:02]
E|--------------------------------------------------|
B|--------------------------------------------------|
G|---------------------2------------------------2---|
D|-2-4-4-5-5-4-2-5-4-4-2--2-5-4-4-5-5-4-2-5-4-4-2-2-|
A|-2-4-4-5-5-4-2-5-4-4-0--2-5-4-4-5-5-4-2-5-4-4-0-2-|
E|-0-2-2-3-3-2-0-3-2-2----0-3-2-2-3-3-2-0-3-2-2---0-| 2x


[2:20]
E|-----------------------------------1---------------|
B|---------------------3---------------1-------------|
G|-----4-----4-------4-----2-------4---------4-------|
D|---2---2-2---2---2-----0---0---2---------2---2-----|
A|---------------------------------------------------|
E|-0-------------0-------------0---------0-------3-2-| 6x


[3:15]
E|---------------------------|
B|---------------------------|
G|-------------3-4-5-7-4-7-4-|
D|-2-3-5-3-5-2-----------7-4-|
A|-2-3-5-3-5-2-----------5-2-|
E|-0-1-3-1-3-0---------------| 2x
       * * *

[3:43]
E|-------------------------------------------------------|
B|-------------------------------------------------------|
G|-------------------------------------------------------|
D|-2-2-2-2-2-2-2-3-3-3-3-5-3-2-2-2-2-2-2-2-8-8s7-7s5-5s3-|
A|-2-2-2-2-2-2-2-3-3-3-3-5-3-2-2-2-2-2-2-2-8-------------|
E|-0-0-0-0-0-0-0-1-1-1-1-3-1-0-0-0-0-0-0-0-6-------------| 2x
     * * * * * *   * *         * * * * * *

[4:02]
E|-----------------------------------------------------------------------|
B|-----------------------------------------------------------------------|
G|---------------------2-----------------------2-----------------------2-|
D|-2-4-4-5-5-4-2-5-4-4-2-2-5-4-4-5-5-4-2-5-4-4-2-2-5-4-4-5-5-4-2-5-4-4-2-|
A|-2-4-4-5-5-4-2-5-4-4-0-2-5-4-4-5-5-4-2-5-4-4-0-2-5-4-4-5-5-4-2-5-4-4-0-|
E|-0-2-2-3-3-2-0-3-2-2---0-3-2-2-3-3-2-0-3-2-2---0-3-2-2-3-3-2-0-3-2-2---|


E|-------------|
B|-------------|
G|-------------|
D|-2-3-5-3-5-2-|
A|-2-3-5-3-5-2-|
E|-0-1-3-1-3-0-|
       * * *

[5:34]
E|----------------------------|
B|----------------------------|
G|----------------------------|
D|-5-7-9-9-9-9-9-9-9-9s10-9s7-|
A|-3-5-7-7-9-9-9-9-9----------|
E|-3-5-7-7-7-7-7-7-7----------|
         * * *   * *

  Visit MetalTabs.com for more metal tablature

bottom separator

Contact Us | Privacy Policy | Disclaimer | Legal Notice
Copyright © 2001-2014 MetalTabs.com. All Rights Reserved.