top separator

Home

Forum

What's New

Submit a Tab

FAQ

Links

Contact Us

Link to Us

MuSpy.com

MetalTabs.com logo

Bands

0-9

A

B

C

D

E

F

G

H

I

J

K

L

M

N

O

P

Q

R

S

T

U

V

W

X

Y

Z

Search

What

Where
 

Rompeprop - "Pelikanelul" Bass Tab

Plain Text Version
More Rompeprop Tabs

Hits: 1831
Updated: 2007-02-14 01:15:21

 

By:

sendpm.gif

email.gif

Important note
This tab is available online because we obtained explicit permission from Rompeprop or their label.


#----------------------------------PLEASE NOTE---------------------------------#
#This file is the author's own work and represents their interpretation of the #
#song. You may only use this file for private study, scholarship, or research. #
#Unless specified otherwise, this is NOT an official tab from the band members.#
#------------------------------------------------------------------------------#

  Visit MetalTabs.com for more metal tablature
  
Band:  Rompeprop
Album: Menstrual Stomphulk
Song:  Pelikanelul

Copyright (c) Dismemberment Records 2002
Version 1.0 -  03-02-07

Transcribed By: meneertaart
Email:          stone-sour70@hotmail.com


.  - palm mute           /  - slide up to
\  - slide down to       ~  - vibrato
h  - hammer on           b  - Bend
p  - pull off            Suffixes for bend
t  - tap                 f  - full bend    h - half bend
ph - pinched harmonic    q  - quarter bend t - tap bend
*  - see comment         ^  - Hold bend    r release bend
x  - Stuccatto           ~  - vibrato bend
,  - slight palm mute    () - ghost note, sustained note
"  - tremolo note        <> - Trill

Tune to B

Intro x8
|-------------------------------------------------------------------|
|-------------------------------------------------------------------|
|----5--------------------------------------------------------------|
|--3---6-5----------------------------------------------------------|

Riff 1 x12
|-------------------------------------------------------------------|
|-------------------------------------------------------------------|
|------5-5----------------------------------------------------------|
|--3-3-----6-6-5-5--------------------------------------------------|

Riff 2 x3 (Play riff 2 twice)
|-------------------------------------------------------------------|
|-------------------------------------------------------------------|
|-------------------------------------------------------------------|
|--3-3-3-3--5-6-----------------------------------------------------|

Riff 2 x1
|-------------------------------------------------------------------|
|-------------------------------------------------------------------|
|-------------------------------------------------------------------|
|--3-3-3-3-3-3-3-3--------------------------------------------------|

Riff 1 x9
|-------------------------------------------------------------------|
|-------------------------------------------------------------------|
|------5-5----------------------------------------------------------|
|--3-3-----6-6-5-5--------------------------------------------------|

Riff 3 x12
|-------------------------------------------------------------------|
|-------------------------------------------------------------------|
|-------------------------------------------------------------------|
|--3/555--3/555--3/555--4-4-----------------------------------------|

Riff 1 x7
|-------------------------------------------------------------------|
|-------------------------------------------------------------------|
|------5-5----------------------------------------------------------|
|--3-3-----6-6-5-5--------------------------------------------------|

Riff 4 x1
|-------------------------------------------------------------------|
|-------------------------------------------------------------------|
|------5-5----------------------------------------------------------|
|--3-3-----6-6-5-5--3-----------------------------------------------|

END

  Visit MetalTabs.com for more metal tablature

bottom separator

Contact Us | Privacy Policy | Disclaimer | Legal Notice
Copyright © 2001-2014 MetalTabs.com. All Rights Reserved.