top separator

Home

Forum

What's New

Submit a Tab

FAQ

Links

Contact Us

Link to Us

MetalTabs.com logo

Bands

0-9

A

B

C

D

E

F

G

H

I

J

K

L

M

N

O

P

Q

R

S

T

U

V

W

X

Y

Z

Search

What

Where
 

Righteous Pigs - "Overdose" Guitar Tab

Plain Text Version
More Righteous Pigs Tabs

Hits: 1757
Updated: 2007-10-10 01:57:40

 

By:

goatman

sendpm.gif

email.gif

Important note
We did our best to reach Righteous Pigs and ask for their permission to publish this tab. Unfortunately they did not respond to our requests or we could not find a way to contact them. This tab is available online until Righteous Pigs tells us to take it down.


#----------------------------------PLEASE NOTE---------------------------------#
#This file is the author's own work and represents their interpretation of the #
#song. You may only use this file for private study, scholarship, or research. #
#Unless specified otherwise, this is NOT an official tab from the band members.#
#------------------------------------------------------------------------------#

  Visit MetalTabs.com for more metal tablature
  
Band:  (RIGHTEOUS PIGS)
Album: (STRESS RELATED)
Song:  (OVERDOSE)

Copyright (c)  (NUCLEAR BLAST) (1990)


Transcribed By: (GOATMAN)
Email:          (VIRUS010891@AOL.COM)


.  - palm mute           tr  - trill        <>  - natural harmonic


Tuning D G C F A D
                                      x2
|--------------------------------------|-----------------------------
|.------------------------------------.|.----------------------------
|--------------------------------------|-----------------------------
|--------------------------------------|-----------------------------
|.-8--------5--------3-------55555555-.|.-7--------7--------6--------
|--6-000000-3-000000-1-00000033333333--|--5-555555-5-555555-4-444444-
     ......   ......   ......               ......   ......   ......
          x2               x4                                      x2
-----------|----------------|---------------------------------------|
----------.|.--------------.|.-------------------------------------.|
-----------|----------------|---------------------------------------|
-----------|----------------|---------------------------------------|
-55555555-.|.--------------.|.-8--------5--------3-------55555555--.|
-33333333--|--1111111111-7~-|--6-000000-3-000000-1-00000033333333---|
              ..........         ......   ......   ......
                                      x2              x8
|--------------------------------------|---------------|-------------
|.------------------------------------.|.-------------.|.------------
|--------------------------------------|---------------|-------------
|--------------------------------------|---------------|-------------
|.-7--------7--------6-------55555555-.|.-------------.|.------------
|--5-555555-5-555555-4-44444433333333--|-1111111111-7~-|-3tr4-4tr5---
     ......   ......   ......            ..........
                                                                     x2
----------------------------------------------------------------------|
---------------------------------------------------------------------.|
----------------------------------------------------------------------|
----------------------------------------------------------------------|
---------------------------------------------------------------------.|
-3tr4-2tr3-3tr4-4tr5-3tr4-2tr3-3tr6-2tr5-5tr8-4tr7-3tr6-2tr5-5tr8-4tr7|

  OVERDOSE!                                                          x2
|---------------------------------------------------------------------|
|.-------------------------------------------------------------------.|
|---------------------------------------------------------------------|
|------------------------------------4-------5-------4-------5--------|
|.-5-6-7-8-5-6-4-5-5-6-7-8-5-6-4-5-5-2-5-6-6-3-6-7-5-2-5-6-6-3-6-7---.|
|--3-4-5-6-3-4-2-3-3-4-5-6-3-4-2-3-3---3-4-4---4-5-3---3-4-4---4-5----|


|---------------------------------------------------------------------
|.--------------------------------------------------------------------
|---------------------------------------------------------------------
|------------9-----------9-----------9-----------9--------------------
|.-----8---8-------8---8-------8---8-------8---8----------------------
|--0-7---7-----0-7---7-----0-7---7-----0-7---7------0-0-0-0--x-0-1-0-
   . .   . .   . .   . .   . .   . .   . .   . .    . . . .  . . . .
                                                       x4"A"
--------------------------------------------------------|-------------------
-------------------------------------------------------.|.------------------
--------------------------------------------------------|-------------------
--------------------------------------------------------|-------------------
-------------------------------------------------------.|.-8--------5-------
-0-0-0-0--x-0-1-0--0-0-0-0--x-0-1-0--0-0-0-0---x-0-1-0--|--6-000000-3-000000
 . . . .  . . . .  . . . .  . . . .  . . . .   . . . .       ......   ......
                  x4              x8 SOLO
-------------------|---------------|-----------------------------------
------------------.|.-------------.|---12"-8"-9"-5"---7"-4"-5"-2"------
-------------------|---------------|-----------------------------------
-------------------|---------------|-----------------------------------
-3-------55555555-.|.-------------.|-----------------------------------
-1-00000033333333--|-1111111111-7~-|-----------------------------------
   ......            ..........    |
                                   |------------------------------------
                                   |------------------------------------
                                   |------------------------------------
                                   |--------------------------3---------
                                   |-8------5-2------3-2------1-2-------
                                   |-6-0000-3-0-0000-1-0-0000---0-000000
                                       ....     ....     ....     ......

------------------------------------------------------------------------<5>
-12"-8"-9"-5"--7"-4"-5"-2"---------2"---5"---8"---11"-12"-----------9"-----
---------------------------------0"---3"---6"---9"-------10"7"----7"--7"---
--------------------------------------------------------------9"6"---------
---------------------------------------------------------------------------
---------------------------------------------------------------------------
|                                                                         |
|                                                                         |
---------------------------------------------------------------------------
---------------------------------------------------------------------------
---------------------------------------------------------------------------
--------------------------3----------------------------------3-------------
-8------5-2------3-2------1-2--------8------5-2------3-2-----1-2--------(7)
-6-0000-3-0-0000-1-0-0000---0-000000-6-0000-3-0-0000-1-0-0000--0-000000-(5)
   ....     ....     ....     ......   ....     ....     ....    ......

                                                                     x6
|---------------------------------------------------------------------|
|.-------------------------------------------------------------------.|
|---------------------------------------------------------------------|
|-----------4--------3-----------------------4--------3---------------|
|.-2------3-2------3-1--------5-4-3-2------3-2------3-1--------3-4-5-.|
|--0-0000-1---0000-1---000000-3-2-1-0-0000-1---0000-1---000000-1-2-3--|
     ....     ....     ......         ....     ....     ......


                    STAR OVER FROM BEGINNING UNTIL THE "A"

-----------------------------------------------------
-----------------------------------------------------
-----------------------------------------------------
-----------9-----------9-----------9-----------9-----
-----8---8-------8---8-------8---8-------8---8-----3-
-0-7---7-----0-7---7-----0-7---7-----0-7---7-------1-
 . .   . .   . .   . .   . .   . .   . .   . .

  Visit MetalTabs.com for more metal tablature

bottom separator

Contact Us | Privacy Policy | Disclaimer | Legal Notice
Copyright © 2001-2014 MetalTabs.com. All Rights Reserved.