top separator

Home

Forum

What's New

Submit a Tab

FAQ

Links

Contact Us

Link to Us

MuSpy.com

MetalTabs.com logo

Bands

0-9

A

B

C

D

E

F

G

H

I

J

K

L

M

N

O

P

Q

R

S

T

U

V

W

X

Y

Z

Search

What

Where
 

Black Witchery - "Heretic Death Call" Guitar Tab

Plain Text Version
More Black Witchery Tabs

Hits: 3911
Rated: 4.50 out of 5 (2 votes)
Updated: 2007-02-14 01:14:38

 

By:

[Nocturno_Culto]

sendpm.gif

email.gif

Important note
We did our best to reach Black Witchery and ask for their permission to publish this tab. Unfortunately they did not respond to our requests or we could not find a way to contact them. This tab is available online until Black Witchery tells us to take it down.


#----------------------------------PLEASE NOTE---------------------------------#
#This file is the author's own work and represents their interpretation of the #
#song. You may only use this file for private study, scholarship, or research. #
#Unless specified otherwise, this is NOT an official tab from the band members.#
#------------------------------------------------------------------------------#

  Visit MetalTabs.com for more metal tablature
  
Band:  Black Witchery
Album: Upheaval Of Satanic Might
Song: Heretic Death Call

Transcribed By: Nocturno Culto
Email: Slash_6661@hotmail.com / Pablo1349@gmail.com


.  - palm mute           /  - slide up to
\  - slide down to       ~  - vibrato
h  - hammer on           b  - Bend
p  - pull off            Suffixes for bend
t  - tap                 f  - full bend    h - half bend
ph - pinched harmonic    q  - quarter bend t - tap bend
*  - see comment         ^  - Hold bend    r release bend
x  - Stuccatto           ~  - vibrato bend
,  - slight palm mute    () - ghost note, sustained note
"  - tremolo note        <> - Trill

Tuning C F A# D# G C

|---------------------|
|---------------------|
|---------------------|
|---------------------|
|---------------------|x10
|-0----3----4----1----|
  "    "    "    "

|-------------------------------|
|-------------------------------|
|-------------------------------|
|-------------------------------|
|-2--------5-----------5---6----|x4
|-0----3\1/3---0---3\1/3---4----|
  "    " " "   "   " " "   "


|---------------------|
|---------------------|
|---------------------|
|---------------------|
|---------------------|x8
|-0----3----4----1----|
  "    "    "    "


|-------------------------------|
|-------------------------------|
|-------------------------------|
|-------------------------------|
|-2--------5-----------5---6----|x8
|-0----3\1/3---0---3\1/3---4----|
  "    " " "   "   " " "   "


0:55
|-----------------------------|
|-----------------------------|
|-----------------------------|
|-----------------------------|
|-2----5\3/5----2----3\2/3----|
|-0----3\1/3----0----1\0/1----|


|-----------------------------|
|-----------------------------|
|-----------------------------|
|-----------------------------|
|----------5-------------3----|x8
|-0----3\1/3----0----1\0/1----|
  "    " " "    "    " " "


|---------------------|
|---------------------|
|---------------------|
|---------------------|
|---------------------|x8
|-0----3----4----1----|
  "    "    "    "



|-------------------------------|
|-------------------------------|
|-------------------------------|
|-------------------------------|
|----------5-----------5---6----|x8
|-0----3\1/3---0---3\1/3---4----|
  "    " " "   "   " " "   "


|-----------------------------|
|-----------------------------|
|-----------------------------|
|-----------------------------|
|----------5-------------3----|x8
|-0----3\1/3----0----1\0/1----|
  "    " " "    "    " " "


|--------------------------------|
|--------------------------------|
|--------------------------------|
|--------------------------------|
|--------------------------------|x4
|-3--------1--------0------------|
  "        "        "

|---------------------|
|---------------------|
|---------------------|
|---------------------|
|---------------------|x8
|-0----3----4----1----|
  "    "    "    "

|---|
|---|
|---|
|---|
|-2-|
|-0-|

END

  Visit MetalTabs.com for more metal tablature

bottom separator

Contact Us | Privacy Policy | Disclaimer | Legal Notice
Copyright © 2001-2014 MetalTabs.com. All Rights Reserved.