top separator

Home

Forum

What's New

Submit a Tab

FAQ

Links

Contact Us

Link to Us

MuSpy.com

MetalTabs.com logo

Bands

0-9

A

B

C

D

E

F

G

H

I

J

K

L

M

N

O

P

Q

R

S

T

U

V

W

X

Y

Z

Search

What

Where
 

Burzum - "Unfinne Oppfatning / Lost Wisdom" Guitar Tab

Plain Text Version
More Burzum Tabs

Hits: 2352
Rated: 3.00 out of 5 (1 vote)
Updated: 2007-02-14 00:33:01

 

By:

megahead

sendpm.gif

email.gif

Important note
This tab is available online because we obtained explicit permission from Burzum or their label.


#----------------------------------PLEASE NOTE---------------------------------#
#This file is the author's own work and represents their interpretation of the #
#song. You may only use this file for private study, scholarship, or research. #
#Unless specified otherwise, this is NOT an official tab from the band members.#
#------------------------------------------------------------------------------#

  Visit MetalTabs.com for more metal tablature
  
Band: BURZUM
 Album: Det Som En Gang Var
 Song: Lost Wisdom

 Copyright (c) Cymophane Productions, 1993
 Version 1.0 -  2007

 Transcribed By: Justin Bilodeau
 Email: jimbob_922@hotmail.com

 Tuning: standard (E)

 .  - palm mute           /  - slide up to
\  - slide down to       ~  - vibrato
h  - hammer on           b  - Bend
p  - pull off            Suffixes for bend
t  - tap                 f  - full bend    h - half bend
ph - pinched harmonic    q  - quarter bend t - tap bend
*  - see comment         ^  - Hold bend    r release bend
x  - Stuccatto           ~  - vibrato bend
,  - slight palm mute    () - ghost note, sustained note
"  - tremolo note        <> - Trill


RIFF A:
|---------------------|-----------------|
|---------------------|-----------------|
|---------------------|-----------------|
|---------------------|----------(slight|
|---2--------2--------|---2--------bend)|
|-0---0-3--0-0--0-3-4-|-0---0-3-1~--2b--|
           *


verse riff:
|-----------------------------------|
|-----------------------------------|
|-----------------------------------|
|-2-2-2-2-55-5-5-5-4-4-4-44-4-4-5-4-|
|-2-2-2-2-22-2-2-2-3-3-3-33-3-3-3-3-|
|-----------------------------------|


Riff A
Verse


RIFF B:
|----------------------------|
|----------------------------|
|----------------------------|
|----------------------------|
|-7~-----------7~------------|
|-----7\2--3-5-----7\2-3-2-3-|


RIFF C:
|--------------------------------------|
|--------------------------------------|
|--------------------------------------|
|--------------------------------------|
|--------------------------------------|
|-7-8-7--8-7\-2--3-5-7-8-7--8-7\2--5-3-|
  * * *              * * *


Riff B


|-----------------------------------|
|-----------------------------------|
|-5-5-5-5-88-8-8-8-7-7-7-77-7-7-8-7-|
|-----------------------------------|
|-----------------------------------|
|-----------------------------------|


Riff A
Verse
Riff A
verse

End

  Visit MetalTabs.com for more metal tablature

bottom separator

Contact Us | Privacy Policy | Disclaimer | Legal Notice
Copyright © 2001-2014 MetalTabs.com. All Rights Reserved.