top separator

Home

Forum

What's New

Submit a Tab

FAQ

Links

Contact Us

Link to Us

MetalTabs.com logo

Bands

0-9

A

B

C

D

E

F

G

H

I

J

K

L

M

N

O

P

Q

R

S

T

U

V

W

X

Y

Z

Search

What

Where
 

Super Fun Happy Slide - "Regurgitation Of Giblet Like Chunks Of Pathologically Perverse Gore" Guitar Tab

Plain Text Version
More Super Fun Happy Slide Tabs

Hits: 1714
Rated: 5.00 out of 5 (1 vote)
Updated: 2007-02-14 00:26:47

 

By:

aXeBastard

sendpm.gif

email.gif

Important note
This tab is available online because we obtained explicit permission from Super Fun Happy Slide or their label.


#----------------------------------PLEASE NOTE---------------------------------#
#This file is the author's own work and represents their interpretation of the #
#song. You may only use this file for private study, scholarship, or research. #
#Unless specified otherwise, this is NOT an official tab from the band members.#
#------------------------------------------------------------------------------#

  Visit MetalTabs.com for more metal tablature
  
Band:  Super Fun Happy Slide
Album: Demo
Song:  Regurgitation of Giblet Like Chunks of Pathologically Perverse Gore

Copyright (c)  Self-Released 2006
Version 1.0 - 2/01/2007

Transcribed By: aXeBastard
Email:          Smashed_Face@msn.com


.  - palm mute           /  - slide up to
\  - slide down to       ~  - vibrato
h  - hammer on           b  - Bend
p  - pull off            Suffixes for bend
t  - tap                 f  - full bend    h - half bend
ph - pinched harmonic    q  - quarter bend t - tap bend
*  - see comment         ^  - Hold bend    r release bend
x  - Stuccatto           ~  - vibrato bend
,  - slight palm mute    () - ghost note, sustained note
"  - tremolo note        <> - Trill

Tuning - B E A D Gb B

|---------------------|---------------------|Intro
|-X3------------------|-X1-Last-time-only---|
|---------------------|---------------------|
|---------------------|---------------------|
|-2---3-5-3-6-5-8-6-3-|-2---3-5-3-6-5-------|
|-0---1-3-1-4-3-6-4-1-|-0---1-3-1-4-3-------|


|---------------------|Riff 1
|---------------------|
|---------------------|
|---------------------|
|-2---3-5-3-6-5-8-6-3-|
|-0---1-3-1-4-3-6-4-1-|


|-------------------------------------------------------|Riff 2
|-------------------------------------------------------|
|-------------------------------------------------------|
|-------------------------------------------------------|
|-2---2---2-2---3---3---3-3---2---2---2-2---6---6---6-6-|
|-0---0---0-0---1---1---1-1---0---0---0-0---4---4---4-4-|
  .             .             .             .

|-----------------------------------------------------------|Riff 2 (part 2)
|-----------------------------------------------------------|
|-----------------------------------------------------------|
|-----------------------------------------------------------|
|-2---2---2-2---3---3---3-3---2---2---2-2-------------------|
|-0---0---0-0---1---1---1-1---0---0---0-0---4h5p4-1-4h5p4-1-|
  .             .             .

|-------------|Riff 3
|-------------|
|-------------|
|-------------|
|-7---6---3---|
|-5---4---1---|


|----------------------------------------|Riff 2 varation
|----------------------------------------|
|----------------------------------------|
|----------------------------------------|
|-2---2---2-2---3---3---3-3---2----------|
|-0---0---0-0---1---1---1-1---0----------|
  .             .

|---------------------------------|Riff 4
|---------------------------------|
|---------------------------------|
|---------------------------------|
|---------------------------------|
|-0---3---1---4---3---6---4---1---|

E N D!!!

  Visit MetalTabs.com for more metal tablature

bottom separator

Contact Us | Privacy Policy | Disclaimer | Legal Notice
Copyright © 2001-2014 MetalTabs.com. All Rights Reserved.