top separator

Home

Forum

What's New

Submit a Tab

FAQ

Links

Contact Us

Link to Us

MetalTabs.com logo

Bands

0-9

A

B

C

D

E

F

G

H

I

J

K

L

M

N

O

P

Q

R

S

T

U

V

W

X

Y

Z

Search

What

Where
 

Summon - "Upon Wings Of Chaos" Guitar Tab

Plain Text Version
More Summon Tabs

Hits: 1388
Updated: 2007-02-14 00:25:28

 

By:

sendpm.gif

email.gif

Important note
We did our best to reach Summon and ask for their permission to publish this tab. Unfortunately they did not respond to our requests or we could not find a way to contact them. This tab is available online until Summon tells us to take it down.


#----------------------------------PLEASE NOTE---------------------------------#
#This file is the author's own work and represents their interpretation of the #
#song. You may only use this file for private study, scholarship, or research. #
#Unless specified otherwise, this is NOT an official tab from the band members.#
#------------------------------------------------------------------------------#

  Visit MetalTabs.com for more metal tablature
  
Band:  Summon
Album: Fallen
Song:  Winds of Chaos

Transcribed By : Alnihilation
E-mail : nihilist@rock.com


. = palm mute
p = pull off
h = hammer on
b = bend
^ = pinch harmonic

Tuning D G C F A D

Intro:
 Gtr. 1
|---------------------------------------------------------|
|---------------------------------------------------------|
|---------------------4-3--------------------7-6----------|
|--2--------------3-4-4-3-3-4-2--------------7-6-5-6-7-6--|
|--2--------------3-4-2-1-3-4-2--------------5-4-5-6-7-6--|
|--0000000000000001-2-----1-2-000000000000000----3-4-5-4--|


 Gtr. 2
|---------------------------------------------------------|
|---------------------------------------------------------|
|--2------------------4-3--------------------7-6----------|
|--2--------------3-4-4-3-3-4-2--------------7-6-5-6-7-6--|
|--2--------------3-4-2-1-3-4-2--------------5-4-5-6-7-6--|
|--0--------------1-2-----1-2-0------------------3-4-5-4--|


Riff 2:
 Gtr. 1 & 2
|-----------------------------------------------------------|
|-----------------------------------------------------------|
|-----------------------------------------------------------|
|--9-8-3-5-7-7-7-9-8-3-5-7-7-7-9-8-3-5-7-7-7-2-2-2-2-2------|
|--9-8-3-5-7-7-7-9-8-3-5-7-7-7-9-8-3-5-7-7-7-2-2-2-2-2------|
|--7-6-1-3-5-5-5-7-6-1-3-5-5-5-7-6-1-3-5-5-5-0-0-0-0-0--4^--|
.. or you can play it up a string like i tabbed the intro

Chorus:
 Gtr. 1
|-----------------------------------|
|-----------------------------------|
|-----------------------------------|
|-----------------------------------|
|-----------------------------------|
|--0-0-0-0-3-3-3-3-5-5-5-5-3-3-3-3--|

 Gtr. 2
|-----------------------------------|
|-----------------------------------|
|-----------------------------------|
|-----------------------------------|
|----------1-1-1-1-3-3-3-3-1-1-1-1--|
|--0-0-0-0--------------------------|

 Gtr. 1
|-----------------------------------|
|-----------------------------------|
|-----------------------------------|
|-2--------5--------7--------5------|
|-2--------5--------7--------5------|
|-0--------3--------5--------3------|

Gtr. 2
|-----------------------------------|
|-----------------------------------|
|-----------------------------------|
|-2--------5--------7---------------|
|-2--------5--------7---------------|
|-0--------3--------5--------4^-----|

Gtr. 1
|-----------------------------------|
|-----------------------------------|
|--------------5-4--------7-6-5/6---|
|-555555555555-5-4-4-5555-7-6-5/6---|
|-555555555555-3-2-4-5555-5-4-3/4---|
|-333333333333-----2-3333-----------|
  (1/16 notes)
Gtr. 2
|-----------------------------------|
|-----------------------------------|
|-------------5-4--------7-6-5/6----|
|-5-----------5-4-4-5----7-6-5/6----|
|-5-----------3-2-4-5----5-4-3/4----|
|-3---------------2-3---------------|


Dive Bomb Solo X 2


|-----------------------------------|
|-----------------------------------|
|-----------------------------------|
|-2-------------3-4-3-2----5-4-3-4--|
|-2-------------3-4-3-2----5-4-3-4--|
|-0000000000000-1-2-1-0000-3-2-1-2--|


Intro x 4 Under Solo 2
Chorus x 4
Intro  x 1 End

  Visit MetalTabs.com for more metal tablature

bottom separator

Contact Us | Privacy Policy | Disclaimer | Legal Notice
Copyright © 2001-2014 MetalTabs.com. All Rights Reserved.