top separator

Home

Forum

What's New

Submit a Tab

FAQ

Links

Contact Us

Link to Us

MuSpy.com

MetalTabs.com logo

Bands

0-9

A

B

C

D

E

F

G

H

I

J

K

L

M

N

O

P

Q

R

S

T

U

V

W

X

Y

Z

Search

What

Where
 

Kult ov Azazel - "As Temples Burn" Guitar Tab

Plain Text Version
More Kult ov Azazel Tabs

Hits: 1812
Rated: 4.00 out of 5 (1 vote)
Updated: 2007-02-14 00:25:13

 

By:

sendpm.gif

email.gif

Important note
This tab is available online because we obtained explicit permission from Kult ov Azazel or their label.


#----------------------------------PLEASE NOTE---------------------------------#
#This file is the author's own work and represents their interpretation of the #
#song. You may only use this file for private study, scholarship, or research. #
#Unless specified otherwise, this is NOT an official tab from the band members.#
#------------------------------------------------------------------------------#

  Visit MetalTabs.com for more metal tablature
  
Band: Kult Ov Azazel
Album: The World, The Flesh and The Devil
Song: As Temples Burn


Transcribed By Alnihilation
Tunning D G C F A D


. = palm mute
p = pull off
h = hammer on
b = bend
/ = slide


Into x 3 1st Time with accents
|--------------------------------------|
|--------------------------------------|
|--------------------------------------|
|--------------------------------------|
|--7-9-10-9-12-9-10-9-7-9-10-9-12-9-7--|
|--5-7-8--7-10-7-8--7-5-7-8--7-10-7-5--|

Riff 2 x 4
|---------------------------------------|
|---------------------------------------|
|---------------------------------------|
|--11--------12-----12-11--------12-----|
|--9---------10-12--10-9---------10-12--|
|----0-0-0-0----10-------0-0-0-0----10--|

Riff 3a x 2
|-------------------------------------|
|-------------------------------------|
|-------------------------------------|
|--7-9-10-9-12-9-10-9-7-9-10-9-7-5-7--|
|--0-0--0-0--0-0--0-0-0-0--0-0-0-0-0--|
|-------------------------------------|

Riff 3b x 2
|-------------------------------------|
|-------------------------------------|
|--7-9-10-9-12-9-10-9-7-9-10-9-7-5-7--|
|--0-0--0-0--0-0--0-0-0-0--0-0-0-0-0--|
|-------------------------------------|
|-------------------------------------|

Riff 3a x 2
Riff 2 x 4

Sick Riff x 4
|-------------------------------------------------------|
|-------------------------------------------------------|
|-------------------------------------------------------|
|------10-9-7-10-9999-------------------------12--------|
|------8--7-5-8--7777------8-7-8/7/5-10101010-10--9-10--|
|-0000----------------0000-----------8-8-8-8------7-8---|

Riff 4a x 2
|------------------------|
|------------------------|
|------------------------|
|--9-7-9-10-9-8-9-8-6-8--|
|--7-7-7-7--7-6-6-6-6-6--|
|------------------------|

Riff 4b x2
|----------------------------|
|----------------------------|
|----------------------------|
|----------------------------|
|--10-8-10-11-10-9-10-9-7-9--|
|--8--8-8--8--8--7-7--7-7-7--|

Riff 4a x 2
Riff 3a x 2
Riff 3b x 2
Riff 3a x 2
Riff 2 x 4
Sick Riff x 4

End Riff x 4        End
|-----------------|------|
|-----------------|------|
|-----------------|------|
|--10-----5-------|--10--|
|--10----------5--|--10--|
|--8----4---3-----|--8---|

  Visit MetalTabs.com for more metal tablature

bottom separator

Contact Us | Privacy Policy | Disclaimer | Legal Notice
Copyright © 2001-2014 MetalTabs.com. All Rights Reserved.