top separator

Home

Forum

What's New

Submit a Tab

FAQ

Links

Contact Us

Link to Us

MetalTabs.com logo

Bands

0-9

A

B

C

D

E

F

G

H

I

J

K

L

M

N

O

P

Q

R

S

T

U

V

W

X

Y

Z

Search

What

Where
 

Gonorrhea Pussy - "Epidermal Cyst Masturbator" Guitar Tab

Plain Text Version
More Gonorrhea Pussy Tabs

Hits: 2505
Updated: 2007-02-14 00:17:24

 

By:

Evil

sendpm.gif

email.gif

Important note
This tab is available online because we obtained explicit permission from Gonorrhea Pussy or their label.


#----------------------------------PLEASE NOTE---------------------------------#
#This file is the author's own work and represents their interpretation of the #
#song. You may only use this file for private study, scholarship, or research. #
#Unless specified otherwise, this is NOT an official tab from the band members.#
#------------------------------------------------------------------------------#

  Visit MetalTabs.com for more metal tablature
  
Band:  Gonorrhea Pussy

Album: Exquisite Lessons in Treating Feminists Through Humiliation

Song:  Epidermal Cyst Masturbator


Transcribed By: Evil
Email:          blackmetal_norway@hotmail.com

Not sure about the tab.

Tuning Drop c

|-------------------------------------------------------------------|
|-------------------------------------------------------------------|
|-------------------------------------------------------------------|
|-------------------------------------------------------------------|
|-0--------222-1-2-4-3----------------------------------------------|
|-0-000000-222-1-2-4-3----------------------------------------------|

|-------------------------------------------------------------------|
|-------------------------------------------------------------------|
|-------------------------------------------------------------------|
|-------------------------------------------------------------------|
|-0--------------222222-111-222-444-333-----------------------------|
|-0-000000000000-222222-111-222-444-333-----------------------------|

Listen to the song for song structure.

END

  Visit MetalTabs.com for more metal tablature

bottom separator

Contact Us | Privacy Policy | Disclaimer | Legal Notice
Copyright © 2001-2014 MetalTabs.com. All Rights Reserved.