top separator

Home

Forum

What's New

Submit a Tab

FAQ

Links

Contact Us

Link to Us

MetalTabs.com logo

Bands

0-9

A

B

C

D

E

F

G

H

I

J

K

L

M

N

O

P

Q

R

S

T

U

V

W

X

Y

Z

Search

What

Where
 

Tankard - "Sunscars" Guitar Tab

Plain Text Version
More Tankard Tabs

Hits: 1721
Rated: 4.00 out of 5 (1 vote)
Updated: 2007-02-01 03:42:18

 

By:

megahead

sendpm.gif

email.gif

Important note
This tab is available online because we obtained explicit permission from Tankard or their label.


#----------------------------------PLEASE NOTE---------------------------------#
#This file is the author's own work and represents their interpretation of the #
#song. You may only use this file for private study, scholarship, or research. #
#Unless specified otherwise, this is NOT an official tab from the band members.#
#------------------------------------------------------------------------------#

  Visit MetalTabs.com for more metal tablature
  
Band: Tankard
 Album: B-Day
 Song: Sunscars

 Copyright (c)   Locomotive Records 2003
 Version 1.0 -  2007

 Transcribed By: Justin Bilodeau
 Email: jimbob_922@hotmail.com

 Tuning: 1/2 step down (Eb)

*  - palm mute           /  - slide up to
\  - slide down to       ~  - vibrato
h  - hammer on           b  - Bend
p  - pull off            Suffixes for bend
t  - tap                 f  - full bend    h - half bend
ph - pinched harmonic    q  - quarter bend t - tap bend
*  - see comment         ^  - Hold bend    r release bend
x  - Stuccatto           ~  - vibrato bend
,  - slight palm mute    () - ghost note, sustained note
"  - tremolo note        <> - Trill


Riff A:                          end 1:
|-------------------------------|-----------------------------|
|-------------------------------|-----------------------------|
|-------------------------------|-----------------------------|
|-----2-----3-----2-----2--3-2--|-----2-----3-----2-----1--1--|
|-----2-----3-----2-----2--3-2--|-----2-----3-----2-----1--1--|
|-0-0---0-0---0-0---0-0---------|-0-0---0-0---0-0---0-0-------|
  * *   * *   * *   * *           * *   * *   * *   * *

end 2:
-----------------------------|
-----------------------------|
-----------------------------|
-----5-----3-----2-----1--1--|
-----5-----3-----2-----1--1--|
-0-0---0-0---0-0---0-0-------|
 * *   * *   * *   * *


Riff B:
|--------------------|
|--------------------|
|--------------------|
|--------------------|
|-2-2----2-2-3--2-2--|
|-0-0----0-0-1--0-0--|


Riff C (verse):     end 1:          end 2:
|-----------------|---------------|----------------|-------|
|-----------------|---------------|----------------|-------|
|-----------------|---------------|----------------|-------|
|-2-----2---------|-2-----2-----3-|-5-----3-----1--|(end 1)|
|-2-----2---------|-2-----2-----3-|-5-----3-----1--|-------|
|---0-0---0-0-0-0-|---0-0---0-0---|---0-0---0-0----|-------|
    * *   * * * *     * *   * *       * *   * *

then:
|--------------------------------|
|--------------------------------|
|--------------------------------|
|-3-----3-----3---5-----5-----5--|
|-3-----3-----3---5-----5-----5--|
|---0-0---0-0-------0-0---0-0----|
    * *   * *       * *   * *


Riff D (chorus):
 part 1:                     part 2:
|--------------------------|--------------------------|--------|
|--------------------------|--------------------------|--------|
|--------------------------|--------------------------|--------|
|--------4------5------3---|--------4------5----------|(part 1)|
|-2------2------3------1-4-|-2------2------3------3-4-|--------|
|-0--0-0----0-0----0-0---2-|-0--0-0----0-0----0-0-1-2-|--------|
     * *    * *    * *          * *    * *    * *

part 3:
--------------------------|
--------------------------|
--------------------------|
--------4-----------------|
-2------2------3------5-4-|
-0--0-0----0-0-1--0-0-3-2-|
    * *    * *    * *


SONG STRUCTURE:
A
B
A
C
A
C
D
A
C
A
C
D
B
D
C
A
C
D
B

END.

  Visit MetalTabs.com for more metal tablature

bottom separator

Contact Us | Privacy Policy | Disclaimer | Legal Notice
Copyright © 2001-2014 MetalTabs.com. All Rights Reserved.