top separator

Home

Forum

What's New

Submit a Tab

FAQ

Links

Contact Us

Link to Us

MuSpy.com

MetalTabs.com logo

Bands

0-9

A

B

C

D

E

F

G

H

I

J

K

L

M

N

O

P

Q

R

S

T

U

V

W

X

Y

Z

Search

What

Where
 

Sodom - "Abuse" Guitar Tab

Plain Text Version
More Sodom Tabs

Hits: 2022
Updated: 2007-02-01 03:33:08

 

By:

mathias krieg

sendpm.gif

email.gif

Important note
This tab is available online because we obtained explicit permission from Sodom or their label.


#----------------------------------PLEASE NOTE---------------------------------#
#This file is the author's own work and represents their interpretation of the #
#song. You may only use this file for private study, scholarship, or research. #
#Unless specified otherwise, this is NOT an official tab from the band members.#
#------------------------------------------------------------------------------#

  Visit MetalTabs.com for more metal tablature
  
Band:  Sodom
Album: Aber bitte mit Sahne EP
Song:  Abuse

Copyright (c)  SPV/Steamhammer 1993
Version 1.0 - 25 January 2007

Transcribed By: matt
Email:          mathiaskrieg@yahoo.com


.  - palm mute           /  - slide up to
\  - slide down to       ~  - vibrato
h  - hammer on           b  - Bend
p  - pull off            Suffixes for bend
t  - tap                 f  - full bend    h - half bend
ph - pinched harmonic    q  - quarter bend t - tap bend
*  - see comment         ^  - Hold bend    r release bend
x  - Stuccatto           ~  - vibrato bend
,  - slight palm mute    () - ghost note, sustained note
"  - tremolo note        <> - Trill

Tuning Eb Ab Db Gb Bb Eb

play this one like you're on meth.


|-------------------------------------------------------------------|
|-------------------------------------------------------------------|
|-------------------------------------------------------------------|
|-------------------------------------------------------------------|
|-7777-6-5-4-7777-6-5-4-7777-6-5-4-7777-6-5-4-----------------------|
|-5555-4-3-2-5555-4-3-2-5555-4-3-2-5555-4-3-2-----------------------|

|-------------------------------------------------------------------|
|-------------------------------------------------------------------|
|-------------------------------------------------------------------|
|-7777-6-5-4-7777-6-5-4---------------------------------------------|
|-5555-4-3-2-5555-4-3-2-7777-6-5-4-7777-6-5-4-----------------------|
|-----------------------5555-4-3-2-5555-4-3-2-----------------------|

|-------------------------------------------------------------------|
|-------------------------------------------------------------------|
|-------------------------------------------------------------------|
|----------------------------9--------------------------------------|
|-22222222-22222222-22222222-7--------------------------------------|
|-00000000-00000000-00000000----------------------------------------|



|-------------------------------------------------------------------|
|-------------------------------------------------------------------|
|-------------------------------------------------------------------|
|-------------------------------------------------------------------|
|-7--------6-5-4-7--------6-5-4-7--------6-5-4-7--------6-5-4-------|
|-5-555555-4-3-2-5-555555-4-3-2-5-555555-4-3-2-5-555555-4-3-2-------|

|-------------------------------------------------------------------|
|-------------------------------------------------------------------|
|-------------------------------------------------------------------|
|-7--------6-5-4-7--------6-5-4-------------------------------------|
|-5-555555-4-3-2-5-555555-4-3-2-7--------6-5-4-7--------6-5-4-------|
|-------------------------------5-555555-4-3-2-5-555555-4-3-2-------|


|-------------------------------------------------------------------|
|-------------------------------------------------------------------|
|-------------------------------------------------------------------|
|-------------------------------------------------------------------|
|-22222222-22222222-------------------------------------------------|
|-00000000-00000000-------------------------------------------------|



|-------------------------------------------------------------------|
|-------------------------------------------------------------------|
|-------------------------------------------------------------------|
|-------------------------------------------------------------------|
|-7777-6-5-4-7777-6-5-4-7777-6-5-4-7777-6-5-4-----------------------|
|-5555-4-3-2-5555-4-3-2-5555-4-3-2-5555-4-3-2-----------------------|

|-------------------------------------------------------------------|
|-------------------------------------------------------------------|
|-------------------------------------------------------------------|
|-------------------------------------------------------------------|
|-7--------6-5-4-7--------6-5-4-7--------6-5-4-7--------6-5-4-------|
|-5-555555-4-3-2-5-555555-4-3-2-5-555555-4-3-2-5-555555-4-3-2-------|

|-------------------------------------------------------------------|
|-------------------------------------------------------------------|
|-------------------------------------------------------------------|
|-7--------6-5-4-7--------6-5-4-------------------------------------|
|-5-555555-4-3-2-5-555555-4-3-2-7--------6-5-4-7--------6-5-4-------|
|-------------------------------5-555555-4-3-2-5-555555-4-3-2-------|

|-------------------------------------------------------------------|
|-------------------------------------------------------------------|
|-------------------------------------------------------------------|
|-------------------------------------------------------------------|
|-2-----------------------------------------------------------------|
|-0-----------------------------------------------------------------|



|-------------------------------------------------------------------|
|-------------------------------------------------------------------|
|-------------------------------------------------------------------|
|-7777-6-5-4-7777-6-5-4-8888-7-6-5-8888-7-6-5-----------------------|
|-5555-4-3-2-5555-4-3-2-6666-5-4-3-6666-5-4-3-----------------------|
|-------------------------------------------------------------------|

|-------------------------------------------------------------------|
|-------------------------------------------------------------------|
|-------------------------------------------------------------------|
|-9999-8-7-6-9999-8-7-6-****-9-8-7-****-9-8-7-----------------------|
|-7777-6-5-4-7777-6-5-4-8888-7-6-5-8888-7-6-5-----------------------|
|-------------------------------------------------------------------|
                         each * represents the 10th fret

|-------------------------------------------------------------------|
|-------------------------------------------------------------------|
|-------------------------------------------------------------------|
|-5--------7--9-----------------------------------------------------|
|-3-----5--5--7---(drums solo for a couple bars)--------------------|
|-------3-----------------------------------------------------------|

|-------------------------------------------------------------------|
|-------------------------------------------------------------------|
|-------------------------------------------------------------------|
|-------------------------------------------------------------------|
|-2--------2-------2------------------------------------------------|
|-0--------0-------0------------------------------------------------|



|--------------------------------------------------------------------------|
|--------------------------------------------------------------------------|
|--------------------------------------------------------------------------|
|-77777777------9999-****************-77777777------9999-****************--|
|-55555555-7777-7777-9999999999999999-55555555-7777-7777-9999999999999999--|
|----------5555--------------------------------5555------9999999999999999--|
                    each * here represents 11 (eleven)
|--------------------------------------------------------------------------|
|--------------------------------------------------------------------------|
|--------------------------------------------------------------------------|
|-77777777------9999-****************-77777777------9999-****************--|
|-55555555-7777-7777-9999999999999999-55555555-7777-7777-9999999999999999--|
|----------5555--------------------------------5555------9999999999999999--|



|-------------------------------------------------------------------|
|-------------------------------------------------------------------|
|-------------------------------------------------------------------|
|-------------------------------------------------------------------|
|-7777-6-5-4-7777-6-5-4-7777-6-5-4-7777-6-5-4-----------------------|
|-5555-4-3-2-5555-4-3-2-5555-4-3-2-5555-4-3-2-----------------------|

|-------------------------------------------------------------------|
|-------------------------------------------------------------------|
|-------------------------------------------------------------------|
|-------------------------------------------------------------------|
|-7--------6-5-4-7--------6-5-4-7--------6-5-4-7--------6-5-4-------|
|-5-555555-4-3-2-5-555555-4-3-2-5-555555-4-3-2-5-555555-4-3-2-------|

|-------------------------------------------------------------------|
|-------------------------------------------------------------------|
|-------------------------------------------------------------------|
|-7--------6-5-4-7--------6-5-4-------------------------------------|
|-5-555555-4-3-2-5-555555-4-3-2-7--------6-5-4-7--------6-5-4-------|
|-------------------------------5-555555-4-3-2-5-555555-4-3-2-------|

|-------------------------------------------------------------------|
|-------------------------------------------------------------------|
|-------------------------------------------------------------------|
|-------------------------------------------------------------------|
|-22222222-(repeat 8x)-2--------------------------------------------|
|-00000000-------------0--------------------------------------------|

END.. take a breath.

  Visit MetalTabs.com for more metal tablature

bottom separator

Contact Us | Privacy Policy | Disclaimer | Legal Notice
Copyright © 2001-2014 MetalTabs.com. All Rights Reserved.