top separator

Home

Forum

What's New

Submit a Tab

FAQ

Links

Contact Us

Link to Us

MuSpy.com

MetalTabs.com logo

Bands

0-9

A

B

C

D

E

F

G

H

I

J

K

L

M

N

O

P

Q

R

S

T

U

V

W

X

Y

Z

Search

What

Where
 

Sodom - "Sodomized" Guitar Tab

Plain Text Version
More Sodom Tabs

Hits: 3614
Rated: 5.00 out of 5 (1 vote)
Updated: 2007-02-01 03:17:15

 

By:

mathias krieg

sendpm.gif

email.gif

Important note
This tab is available online because we obtained explicit permission from Sodom or their label.


#----------------------------------PLEASE NOTE---------------------------------#
#This file is the author's own work and represents their interpretation of the #
#song. You may only use this file for private study, scholarship, or research. #
#Unless specified otherwise, this is NOT an official tab from the band members.#
#------------------------------------------------------------------------------#

  Visit MetalTabs.com for more metal tablature
  
Band:  Sodom
Album: One Night in Bangkok (live)
Song:  Sodomized

Copyright (c)  SPV/Steamhammer 2003
Version 1.0 - 23 January 2006

Transcribed By: matt
Email:          mathiaskrieg@yahoo.com


.  - palm mute           /  - slide up to
\  - slide down to       ~  - vibrato
h  - hammer on           b  - Bend
p  - pull off            Suffixes for bend
t  - tap                 f  - full bend    h - half bend
ph - pinched harmonic    q  - quarter bend t - tap bend
*  - see comment         ^  - Hold bend    r release bend
x  - Stuccatto           ~  - vibrato bend
,  - slight palm mute    () - ghost note, sustained note
"  - tremolo note        <> - Trill

Tuning D G C F A D


riff 1 4x listen for the exact riffing. these are the right notes.
|-------------------------------------------------------------------|
|-------------------------------------------------------------------|
|-------------------------------------------------------------------|
|-4----4----4---4---4----7-7-7-2---4----4----4----------------------|
|-2222-2222-222-222-222--5-5-5-0---2222-2222-2222-3-3-3-3-6-6-6-6---|
|-------------------------------------------------1-1-1-1-4-4-4-4---|

riff 2 4x
|-------------------------------------------------------------------|
|-------------------------------------------------------------------|
|-------------------------------------------------------------------|
|-------------------------------------------------------------------|
|-7----------------8--------6---------------------------------------|
|-5555555555555555-66666666-44444444--------------------------------|

riff 1 2x

riff 2 4x

riff 3 4x
|-------------------------------------------------------------------|
|-------------------------------------------------------------------|
|-------------------------------------------------------------------|
|-2-----------------------------------------------------------------|
|-2----2-2---5-7----------------------------------------------------|
|-0----0-0---3-5----------------------------------------------------|

riff 1 2x

riff 2 4x

riff 3 4x

then play this part 1x
|-------------------------------------------------------------------|
|-------------------------------------------------------------------|
|-------------------------------------------------------------------|
|--66666666666667-666666666666-7-66666666666667-66666666666667------|
|--44444444444445-44444444444475-44444444444445-44444444444445------|
|-----------------------------5-------------------------------------|


|-------------------------------------------------------------------|
|-------------------------------------------------------------------|
|-------------------------------------------------------------------|
|--88888888888889-88888888888889-88888888888889-88888888888889------|
|--66666666666667-66666666666667-66666666666667-66666666666667------|
|-----------------------------------------------*-------------------|
					*there's a pick slide or some junk
                                          here if you want to play it.

riff 4 2x (it's like riff 1 a whole step higher)
|-------------------------------------------------------------------|
|-------------------------------------------------------------------|
|-------------------------------------------------------------------|
|-6----6----6---6---6----9-9-9----6----6----6-----------------------|
|-4444-4444-444-444-444--7-7-7-9--4444-4444-4444--5-5-5-5-8-8-8-8---|
|------------------------------7------------------3-3-3-3-6-6-6-6---|

riff 5 4x (it's like riff 2 a whole step higher)
|-------------------------------------------------------------------|
|-------------------------------------------------------------------|
|-------------------------------------------------------------------|
|-------------------------------------------------------------------|
|-9---------------10--------8---------------------------------------|
|-7777777777777777-88888888-66666666--------------------------------|

riff 3 4x

riff 6 4x
|-------------------------------------------------------------------|
|-------------------------------------------------------------------|
|-------------------------------------------------------------------|
|-------------------------------------------------------------------|
|-----------------5-7-----------------------------------------------|
|0000000000000000-3-5-----------------------------------------------|


END

  Visit MetalTabs.com for more metal tablature

bottom separator

Contact Us | Privacy Policy | Disclaimer | Legal Notice
Copyright © 2001-2014 MetalTabs.com. All Rights Reserved.