top separator

Home

Forum

What's New

Submit a Tab

FAQ

Links

Contact Us

Link to Us

MetalTabs.com logo

Bands

0-9

A

B

C

D

E

F

G

H

I

J

K

L

M

N

O

P

Q

R

S

T

U

V

W

X

Y

Z

Search

What

Where
 

Azaghal - "Kyy" Guitar Tab

Plain Text Version
More Azaghal Tabs

Hits: 3914
Rated: 2.71 out of 5 (7 votes)
Updated: 2007-02-01 00:06:20

 

By:

sendpm.gif

email.gif

Important note
This tab is available online because we obtained explicit permission from Azaghal or their label.


#----------------------------------PLEASE NOTE---------------------------------#
#This file is the author's own work and represents their interpretation of the #
#song. You may only use this file for private study, scholarship, or research. #
#Unless specified otherwise, this is NOT an official tab from the band members.#
#------------------------------------------------------------------------------#

  Visit MetalTabs.com for more metal tablature
  
Band:  Azaghal
Album:  Kyy
Song:  Kyy

Copyright (c)  Aftermath Music


Transcribed By:   dismemberedfoetus
Email:        cemetery_and_sundown@yahoo.com


.  - palm mute           /  - slide up to
\  - slide down to       ~  - vibrato
h  - hammer on           b  - Bend
p  - pull off            Suffixes for bend
t  - tap                 f  - full bend    h - half bend
ph - pinched harmonic    q  - quarter bend t - tap bend
*  - see comment         ^  - Hold bend    r release bend
x  - Stuccatto           ~  - vibrato bend
,  - slight palm mute    () - ghost note, sustained note
"  - tremolo note        <> - Trill

Tuning D A D G B E

|-------------------------------------------------------------------|
|-------------------------------------------------------------------|
|-------------------------------------------------------------------|
|7----6----7-------1--2--4----7----6----7-------1--6--7-------------| X 4
|7----6----7-------1--2--4----7----6----7-------1--6--7-------------|
|7--0-6--0-7--0-0--1--2--4----7--0-6--0-7--0-0--1--6--7-------------|
    .    .    . .                .    .    . .

|-------------------------------------------------------------------|
|-------------------------------------------------------------------|
|-------------------------------------------------------------------|
|0-------1--1--0-------1--3--0-------1--1--0-------------3p2-2b-----|
|0-------1--1--0-------1--3--0-------1--1--0-----4p3-3--------------|
|0-------1--1--0-------1--3--0-------1--1--0------------------------|

|-------------------------------|
|-------------------------------|
|-------------------------------|
|0-----------------------1--3---|  X4
|0-----------------------1--3---|
|0--0-0-0-0-0-0-0-0-0-0--1------|
    . . . . . . . . . .


|--------------------------------------|
|--------------------------------------|
|--------------------------------------|
|0--------------------------3p2-2b-----|
|0-------------------4p3-3-------------|
|0--0-0-0-0-0-0------------------------|
    . . . . . .


|------------------15------13---------------------------------------|
|--/11-----13--15--------------16--15------16--15--13-------13--18--|
|-------------------------------------------------------------------|
|-------------------------------------------------------------------|
|-------------------------------------------------------------------|
|-------------------------------------------------------------------|


|-------------------------------------------------------------------|
|-------------------------------------------------------------------| (Rythmn
|-------------------------------------------------------------------|  behind
|-10--10-10--10-10-10--10-10-10----8--8-8--8-8--11-11-11--11-11-11--|  solo)
|-10--10-10--10-10-10--10-10-10----8--8-8--8-8--11-11-11--11-11-11--|  X4
|-10--10-10--10-10-10--10-10-10----8--8-8--8-8--11-11-11--11-11-11--|


(sorry i dont have the solos)

Thats all the riffs, some get repeated but you can listen to the song
and know when to play each riff. im not 100% on all the riffs but for
the most part they should be alright, e-mail me if you have any questions.

  Visit MetalTabs.com for more metal tablature

bottom separator

Contact Us | Privacy Policy | Disclaimer | Legal Notice
Copyright © 2001-2014 MetalTabs.com. All Rights Reserved.