top separator

Home

Forum

What's New

Submit a Tab

FAQ

Links

Contact Us

Link to Us

MuSpy.com

MetalTabs.com logo

Bands

0-9

A

B

C

D

E

F

G

H

I

J

K

L

M

N

O

P

Q

R

S

T

U

V

W

X

Y

Z

Search

What

Where
 

Rock Goddess - "Satisfied Then Crucified" Guitar Tab

Plain Text Version
More Rock Goddess Tabs

Hits: 2411
Updated: 2007-02-01 00:04:43

 

By:

zerofret

sendpm.gif

email.gif

Important note
We did our best to reach Rock Goddess and ask for their permission to publish this tab. Unfortunately they did not respond to our requests or we could not find a way to contact them. This tab is available online until Rock Goddess tells us to take it down.


#----------------------------------PLEASE NOTE---------------------------------#
#This file is the author's own work and represents their interpretation of the #
#song. You may only use this file for private study, scholarship, or research. #
#Unless specified otherwise, this is NOT an official tab from the band members.#
#------------------------------------------------------------------------------#

  Visit MetalTabs.com for more metal tablature
  
-----------------------------------------------------------------------------
                   SATISFIED THEN CRUCIFIED - Rock Goddess
-----------------------------------------------------------------------------

Written by: J.Turner
Album: "Rock Goddess"     (1983, A & M Records)
Guitarist: Jody Turner

Tabbed by: A. Drury   (zerofret)
Email: zerofret_ad@hotmail.com
Date: January 6, 2007

Tuning note: The song is tabbed in Standard tuning so that the listed chords
will be in their familiar positions (rather than shifted a fret). But tune
down a half step to Eb tuning (Eb Ab Db Gb Bb Eb) to be in the same key as
the recording.

INTRO:

        G5                  A5
 E -----------------|-----------------|
 B -----8-----8-----|-8--\------------|
 G -----7-----7-----|-7--\--2-----2---|  4x
 D -----5-----5-----|-5--\--2-----2---|
 A -0-0---0-0---0-0-|-------0-----0---|
 E -----------------|-----------------|
    . .   . .   . .

   A5
 E -----------------|-----------------|
 B -----------------|-----------------|
 G -----------------|-----------------|  4x
 D -----2-----3-----|-5-----7-----7~--|
 A -0-0---0-0---0-0-|---0-0---0-0-----|
 E -----------------|-----------------|
    . .   . .   . .     . .   . .


1ST VERSE:

   A5
 E -----------------|-----------------|-----------------|-----------------|
 B -----------------|-----------------|-----------------|-----------------|
 G -----------------|-----------------|-----------------|-----------------|2x
 D -----2-----3-----|-5-----7-----7~--|-----2-----3-----|-5-----7-----7~--|
 A -0-0---0-0---0-0-|---0-0---0-0-----|-0-0---0-0---0-0-|---0-0---0-0-----|
 E -----------------|-----------------|-----------------|-----------------|
    . .   . .   . .     . .   . .       . .   . .   . .     . .   . .
1.You pull...
2.Got ringing...


   Bb5               F5                G5
 E -----------------|-----------------|-----------------|-----------------|
 B -----------------|-----------------|-----------------|-----------------|
 G -3---------------|-----------------|---------------5-|---3---5^sr------|
 D -3---------------|-3---------------|-5-5-5-5-5-5-5-5-|---3---5^sr------|
 A -1---------------|-3---------------|-5-5-5-5-5-5-5---|-----------------|
 E -----------------|-1---------------|-3-3-3-3-3-3-3---|-----------------|
          Sure...                       . . . . . . .


   Bb5               F5                G5
 E -----------------|-----------------|-----------------|-----------------|
 B -----------------|-----------------|-----------------|-----------------|
 G -3---------------|-----------------|-----------5---x-|-5---------------|
 D -3---------------|-3---------------|-5-5-5-5-5-5---x-|-5-5-5-5---------|
 A -1---------------|-3---------------|-5-5-5-5-5-------|---5-5-5---------|
 E -----------------|-1---------------|-3-3-3-3-3-------|-----------------|
          Boy...                        . . . . .


CHORUS:

   A5                D5     A5         A5                D5     A5
 E -----------------|-----------------|-----------------|-----------------|
 B -----8h10--8---x-|-----------------|-----8h10--8---x-|-----------------|
 G -----7h9---7---x-|-7--\--2---------|-----7h9---7---x-|-7--\--2---------|2x
 D -----------------|-7--\--2---------|-----------------|-7--\--2---------|
 A -----------------|-5--\--0---------|-----------------|-5--\--0---------|
 E -----------------|-----------------|-----------------|-----------------|
   Satisfied,                   then   crucified


   A5
 E -----------------|-----------------|
 B -----------------|-----------------|
 G -----------------|-----------------|  4x
 D -----2-----3-----|-5-----7-----7~--|
 A -0-0---0-0---0-0-|---0-0---0-0-----|
 E -----------------|-----------------|
    . .   . .   . .     . .   . .


Then: 2ND VERSE   (played same as 1st Verse)


Play CHORUS


GUITAR SOLO:

   E5
 E -------------------------|-----------12----------------|
 B -14^sr-------------------|--------12----15p12----------|
 G -14^wr-12-------12----14-|---14^w-------------14-12-14-|
 D ----------14-------------|-----------------------------|
 A -------------------------|-----------------------------|
 E -------------------------|-----------------------------|


   E5               +     +      +     +     +     +
 E ---------------------------|---------------------------|
 B -14^sr----15^w--15^w--15^w-|-15^w--15^w--15^w--15^w----|
 G -14^wr-12------------------|---------------------------|
 D ---------------------------|---------------------------|
 A ---------------------------|---------------------------|
 E ---------------------------|---------------------------|


   E5
 E -------------------------|-------------------------|
 B -14^s-----14^s-----14^s--|-------14^sr-12----------|
 G -14^w-----14^w-----14^w--|-------14^wr-12----------|
 D -------------------------|-------------------14----|
 A -------------------------|-------------------------|
 E -------------------------|-------------------------|


   E5
 E -------------------------|----15--17^w--17^w-------|
 B -15^w-----15^w-----15^w--|-17----------------------|
 G -------------------------|-------------------------|
 D -------------------------|-------------------------|
 A -------------------------|-------------------------|
 E -------------------------|-------------------------|


Gt1
 E|-15~~------=-----|---=--------=----|---=--------=----|----=-------=----|
 B|-----------------|-----------------|-----------------|-----------------|
 G|-----------------|-----------------|-----------------|-----------------|
 D|-----------------|-----------------|-----------------|-----------------|
 A|-----------------|-----------------|-----------------|-----------------|
 E|-----------------|-----------------|-----------------|-----------------|
  |                                                                       |
Gt|2                                                                      |
 E|-----------------|-----------------|-----------------|-----------------|
 B|-----------------|-----------------|-----------------|-----------------|
 G|-----------------|-----------------|-----------------|-----------------|2x
 D|-----2-----3-----|-5-----7-----7~--|-----2-----3-----|-5-----7-----7~--|
 A|-0-0---0-0---0-0-|---0-0---0-0-----|-0-0---0-0---0-0-|---0-0---0-0-----|
 E|-----------------|-----------------|-----------------|-----------------|
    . .   . .   . .     . .   . .       . .   . .   . .     . .   . .


Then: 3RD VERSE   (Played same as 1st Verse)


Play CHORUS 2x, then:


   A5
 E -----------------|-----------------|-----------------|-----------------|
 B -----------------|-----------------|-----------------|-----------------|
 G -----2---x-3---x-|-2---x-5---x-5---|-----2---x-3---x-|-2-2-------------|
 D -----2---x-3---x-|-2---x-5---x-5---|-----2---x-3---x-|-2-2-------------|
 A -----------------|-----------------|-----------------|-0-0-------------|
 E -----------------|-----------------|-----------------|-----------------|


-----------------------------------------------------------------------------
Notes:
-4/4 time, bar lines do indicate timing
-Note that in this tab dots (...) under a staff indicate palm muting.
 Usually in my tabs, dots under a staff are put in as a timing device, so
 they're being used differently in this tab.

^...bend (w=whole tone,s=semi)       ~...vibrato
r...release bend                     =...hold note
h...hammer on                        \...slide down
p...pull off                         +...pinch harmonic
... palm mute (dots under staff)     x...muted note

(This file is the transcriber's own work and represents
their interpretation of the song.)

  Visit MetalTabs.com for more metal tablature

bottom separator

Contact Us | Privacy Policy | Disclaimer | Legal Notice
Copyright © 2001-2014 MetalTabs.com. All Rights Reserved.