top separator

Home

Forum

What's New

Submit a Tab

FAQ

Links

Contact Us

Link to Us

MuSpy.com

MetalTabs.com logo

Bands

0-9

A

B

C

D

E

F

G

H

I

J

K

L

M

N

O

P

Q

R

S

T

U

V

W

X

Y

Z

Search

What

Where
 

Acid Bath - "The Blue" Guitar Tab

Plain Text Version
More Acid Bath Tabs

Hits: 1926
Rated: 3.00 out of 5 (2 votes)
Updated: 2007-01-27 00:29:58

 

By:

sendpm.gif

email.gif

Important note
We did our best to reach Acid Bath and ask for their permission to publish this tab. Unfortunately they did not respond to our requests or we could not find a way to contact them. This tab is available online until Acid Bath tells us to take it down.


#----------------------------------PLEASE NOTE---------------------------------#
#This file is the author's own work and represents their interpretation of the #
#song. You may only use this file for private study, scholarship, or research. #
#Unless specified otherwise, this is NOT an official tab from the band members.#
#------------------------------------------------------------------------------#

  Visit MetalTabs.com for more metal tablature
  
Band:  Acid Bath
Album: When the Kite String Pops
Song:  The Blue

Copyright (c)  Rotten Records 1994
Version 1.0 - 1/19/2007

Transcribed By: TheGreg



.  - palm mute           /  - slide up to
\  - slide down to       ~  - vibrato
h  - hammer on           b  - Bend
p  - pull off            Suffixes for bend
t  - tap                 f  - full bend    h - half bend
ph - pinched harmonic    q  - quarter bend t - tap bend
*  - see comment         ^  - Hold bend    r release bend
x  - Stuccatto           ~  - vibrato bend
,  - slight palm mute    () - ghost note, sustained note
"  - tremolo note        <> - Trill

Tuning - C#, F#, Bb, E, G#, C# (Standard Acid Bath Tuning)




Intro (During Bass Riff)

|--------------------------------|
|------------------------14b16\\\|
|--------------------------------|
|--------------------------------|
|--------------------------------|
|--------------------------------|

|--------------------------------|
|--------------------------------|
|------------------------14b16\\\|
|--------------------------------|
|--------------------------------|
|--------------------------------|

|--------------------------------|
|------------------------14b16\\\|
|--------------------------------|
|--------------------------------|
|--------------------------------|
|--------------------------------|

|--------------------------------|
|--------------------------------|
|--------------------------------|
|--------------------------------|
|--------------------------------|
|---------------10~~~~~~~~~~~~---|


Riff 1
|--------------------------------|
|--------------------------------|
|--------------------------------|
|--------------------------------|
|-----------7------------5-7-5---|
|--0----0-5---5-6b7b6--0-3-5-3---| x4


Riff 2
|--------------------------------|
|--------------------------------|
|--------------------------------|
|--------------------------------|
|---------------5-----5-7-5-7b8--|
|--0----0-0-5-7---7--------------| x4


Riff 1 x4
Riff 2 x4

-- Bass Bridge --


Bridge 1
|----------------------|
|----------------------|
|----------------------|
|----------------------|
|----------------------|
|--0-0-3-3~-/10-10-\3--| x3

|----------------------------|
|----------------------------|
|----------------------------|
|----------------------------|
|----------------------------|
|--0-0-3-3~-/10-10-\3-/10-\3-|


Bridge 2
|------------------------|
|------------------------|
|------------------------|
|------------------------|
|--------10~-------------|
|--0---0-------0-0-0-1~--| x3

|-----------------------------|
|-----------------------------|
|-----------------------------|
|-----------------------------|
|--------10~---------3-3-3-3--|
|--0---0-------0-0-0-1-1-1-1--|


Riff 3
|--------------------------|
|--------------------------|
|--------------------------|
|--------------------------|
|-------10~\-------3-3-3-3-|
|--0---------0-----1-1-1-1-| x3

|--------------------------|
|--------------------------|
|--------------------------|
|--------------------------|
|-------10~--10~------3-3--|
|--0------------------1-1--|


Riff 4
|--------------------------|
|--------------------------|
|--------------------------|
|--------------------------|
|--2--2-2-5----2-2-3-3-3-3-|
|--0--0-0-3----0-0-1-1-1-1-| x4

Riff 5
|-------------------------------|
|-------------------------------|
|-------------------------------|
|-------------------------------|
|--2--2-2-5------2--2-2-3-3-3-3-|
|--0--0-0-3-/10--0--0-0-1-1-1-1-| x4

Riff 6
|-------------------------------|
|-------------------------------|
|-------------------------------|
|-------------------------------|
|---------5-------------3-3-3-3-|
|---------3-/10---------1-1-1-1-| x3

|-------------------------------|
|-------------------------------|
|-------------------------------|
|-------------------------------|
|---------5-------------3-3-3-3-|
|---------3-/10-3~------1-1-1-1-|


Riff 5 x4


Bridge 3
|-------------------------------------|
|-------------------------------------|
|-------------------------------------|
|-------------------------------------|
|--7-6---7-6---1010--7-6---6-7-6-1010-|
|--5-4-0-5-4-0-8-8---5-4-0-4-5-4-8-8--|

Riff 7
|-------------|
|-------------|
|-------------|
|-------8-8---|
|--7-6--6-6-6-|
|--5-4------4-| x8

Bridge 4
|-------------------------------------|
|-------------------------------------|
|-------------------------------------|
|-------------------------------------|
|--7-6---7-6---1010--7-6---7-6---1010-|
|--5-4-0-5-4-0-8-8---5-4-0-5-4-0-8-8--|



Riff 7 x 8
Bridge 4 x2



Solo (Sammy)
|-----------------------------------------------|
|------------------------5b6--5-----------------|
|------4-----4-7---4-7-4------------9-----------|
|--5-7-----7----------------------7---8~--8-7-5-|
|-----------------------------------------------|
|-----------------------------------------------|

|----------------------------------------------------------|
|----------------------------------------------------------|
|----------------------------------------------------------|
|----------5-5-------------5-5-----5-5-7-7-9-9-7-7-9-9-7-7-|
|--5-5-7-7-----7-7-5-5-7-7-----7-7-------------------------|
|----------------------------------------------------------|

|------------------12~--12-12-15----------------------12----12----|
|----------------------------------12~--12-15-14------------------|
|------------------------------------------------15~-----15----15-|
|--14~--14-14-12--------------------------------------------------|
|-----------------------------------------------------------------|
|-----------------------------------------------------------------|


(Mike)
|--------------------------------------|
|--------------------------------------|
|--------------------------------------|
|--7~--7~--7~--7-5---------------------|
|------------------7-5-7~----7-5-0-----|
|----------------------------------6~--|

|---------------------------------------------------------------------|
|---------------------------------------------------------------------|
|--------------12-14~-----------------12-14~----14----------12--------|
|--------12-14------------------12-14--------------12-12-14----14-12~-|
|--12-14------------------12-14---------------------------------------|
|---------------------------------------------------------------------|

|-------------------------------|
|-------------------------------|
|-------------------------------|
|--12----12---------------------|
|-----14----14-7b8--7----7b8--7-|
|-------------------------------|



Riff 2 x4
Riff 1 x4

END

  Visit MetalTabs.com for more metal tablature

bottom separator

Contact Us | Privacy Policy | Disclaimer | Legal Notice
Copyright © 2001-2014 MetalTabs.com. All Rights Reserved.