top separator

Home

Forum

What's New

Submit a Tab

FAQ

Links

Contact Us

Link to Us

MetalTabs.com logo

Bands

0-9

A

B

C

D

E

F

G

H

I

J

K

L

M

N

O

P

Q

R

S

T

U

V

W

X

Y

Z

Search

What

Where
 

Sodom - "Blasphemer" Guitar Tab

Plain Text Version
More Sodom Tabs

Hits: 4696
Rated: 5.00 out of 5 (1 vote)
Updated: 2007-01-27 00:28:25

 

By:

mathias krieg

sendpm.gif

email.gif

Important note
This tab is available online because we obtained explicit permission from Sodom or their label.


#----------------------------------PLEASE NOTE---------------------------------#
#This file is the author's own work and represents their interpretation of the #
#song. You may only use this file for private study, scholarship, or research. #
#Unless specified otherwise, this is NOT an official tab from the band members.#
#------------------------------------------------------------------------------#

  Visit MetalTabs.com for more metal tablature
  
Band:  SODOM
Album: One Night in Bangkok (live)
Song:  Blasphemer

Copyright (c)  SPV/Steamhammer 2003
Version 1.0 - 19 January 2006

Transcribed By: matt
Email:          mathiaskrieg@yahoo.com


.  - palm mute           /  - slide up to
\  - slide down to       ~  - vibrato
h  - hammer on           b  - Bend
p  - pull off            Suffixes for bend
t  - tap                 f  - full bend    h - half bend
ph - pinched harmonic    q  - quarter bend t - tap bend
*  - see comment         ^  - Hold bend    r release bend
x  - Stuccatto           ~  - vibrato bend
,  - slight palm mute    () - ghost note, sustained note
"  - tremolo note        <> - Trill

Tuning D G C F A D

Sodom's old songs are killer even 20-25 years later as part of the live set.
This is one of my favorites.

riff 1 4x (this is the intro, verse, and chorus)
|-------------------------------------------------------------------|
|-------------------------------------------------------------------|
|-------------------------------------------------------------------|
|-------------------------------------------------------------------|
|-------------------------------------------------------------------|repeat
|0000000000000000-33333333-11111111---------------------------------|4x*


|-------------------------------------------------------------------|
|-------------------------------------------------------------------|
|-------------------------------------------------------------------|
|-------------------------------------------------------------------|
|-----------------5--------3----------------------------------------|alt.
|0000000000000000-3--------1----------------------------------------|ending
*riff 1 with a power chord ending is used on the fourth repeat during
the intro and the chorus but not during the verse. Just listen to it, this
is not a complicated song.

riff 2
|-------------------------------------------------------------------|
|-------------------------------------------------------------------|
|-------------------------------------------------------------------|
|-------------------------------------------------------------------|
|--------------------------------33333333---------------------------|repeat
|-555555555555-3333-555555555555------------------------------------|2x

|-------------------------------------------------------------------|
|-------------------------------------------------------------------|
|-------------------------------------------------------------------|
|-------------------------------------------------------------------|
|-222222222222-0000-222222222222-33333333---------------------------|repeat
|--------------------------------****-------------------------------|2x
****he plays some harmonics or pick slides here sometimes
|-------------------------------------------------------------------|
|-------------------------------------------------------------------|
|-------------------------------------------------------------------|
|-------------------------------------------------------------------|
|--------------------------------33333333---------------------------|repeat
|-555555555555-3333-555555555555------------------------------------|2x

|-------------------------------------------------------------------|
|-------------------------------------------------------------------|
|-------------------------------------------------------------------|
|-------------------------------------------------------------------|
|-222222222222-0000-222222222222-33333333---------------------------|
|-------------------------------------------------------------------|

|-------------------------------------------------------------------|
|-------------------------------------------------------------------|
|-------------------------------------------------------------------|
|-------------------------------------------------------------------|
|-222222222222-0000--5-----------3----------------------------------|
|--------------------3-----------1----------------------------------|



riff 3 1x (this is just a chugging variation of riff 1)
|-------------------------------------------------------------------|
|-------------------------------------------------------------------|
|-------------------------------------------------------------------|
|-------------------------------------------------------------------|
|-2-2-2-2--5-5-3-3--------------------------------------------------|
|-0-0-0-0--3-3-1-1--------------------------------------------------|3x
    . . .
|-------------------------------------------------------------------|
|-------------------------------------------------------------------|
|-------------------------------------------------------------------|
|-------------------------------------------------------------------|
|-2-2-2-2--5---3----------------------------------------------------|
|-0-0-0-0--3---1----------------------------------------------------|4th time
  . . . .

riff 1 2x

riff 2 1x

riff 3 1x

riff 1 2x

riff 2 1x

riff 3 1x

riff 1 1x using the alternate ending every time.
END

  Visit MetalTabs.com for more metal tablature

bottom separator

Contact Us | Privacy Policy | Disclaimer | Legal Notice
Copyright © 2001-2014 MetalTabs.com. All Rights Reserved.