top separator

Home

Forum

What's New

Submit a Tab

FAQ

Links

Contact Us

Link to Us

MuSpy.com

MetalTabs.com logo

Bands

0-9

A

B

C

D

E

F

G

H

I

J

K

L

M

N

O

P

Q

R

S

T

U

V

W

X

Y

Z

Search

What

Where
 

Sodom - "Outbreak of Evil" Guitar Tab

Plain Text Version
More Sodom Tabs

Hits: 3383
Rated: 2.33 out of 5 (3 votes)
Updated: 2007-01-27 00:27:52

 

By:

mathias krieg

sendpm.gif

email.gif

Important note
This tab is available online because we obtained explicit permission from Sodom or their label.


#----------------------------------PLEASE NOTE---------------------------------#
#This file is the author's own work and represents their interpretation of the #
#song. You may only use this file for private study, scholarship, or research. #
#Unless specified otherwise, this is NOT an official tab from the band members.#
#------------------------------------------------------------------------------#

  Visit MetalTabs.com for more metal tablature
  
Band:  SODOM
Album: One Night in Bangkok (live)
Song:  Outbreak of Evil

Copyright (c)  SPV/Steamhammer 2003
Version 1.0 - 18 January 2007

Transcribed By: matt
Email:          mathiaskrieg@yahoo.com


.  - palm mute           /  - slide up to
\  - slide down to       ~  - vibrato
h  - hammer on           b  - Bend
p  - pull off            Suffixes for bend
t  - tap                 f  - full bend    h - half bend
ph - pinched harmonic    q  - quarter bend t - tap bend
*  - see comment         ^  - Hold bend    r release bend
x  - Stuccatto           ~  - vibrato bend
,  - slight palm mute    () - ghost note, sustained note
"  - tremolo note        <> - Trill

Tuning D G C F A D

intro - a half time version of the original song

slow verse 1x, heavy chugging palm mutes, hard to tab it exactly
|-------------------------------------------------------------------|
|-------------------------------------------------------------------|
|-------------------------------------------------------------------|
|-------------------------------------------------------------------|
|-2-------2-------2-----2---2-2-2-----------------------------------|
|-0-0-0-0-0-0-0-0-0-0-0-0-0-0-0-0-----------------------------------|
    . . .   . . .   . .   .
|-------------------------------------------------------------------|
|-------------------------------------------------------------------|
|-------------------------------------------------------------------|
|-------------------------------------------------------------------|
|-4-------------4-4-----4-ph----------------------------------------|
|-2-2-2-2-2-2-2-2-2-2-2-2-2~----------------------------------------|
    . . . . .       .
|-------------------------------------------------------------------|
|-------------------------------------------------------------------|
|-------------------------------------------------------------------|
|-------------------------------------------------------------------|
|-5---------------5-----5---5-5-5-----------------------------------|
|-3-3-3-3-3-3-3-3-3-3-3-3-3-3-3-3-----------------------------------|
    . . . . . . .   . .   .   .
|-------------------------------------------------------------------|
|-------------------------------------------------------------------|
|-------------------------------------------------------------------|
|-------------------------------------------------------------------|
|-4---------------4-----4-------------------------------------------|
|-2-2-2-2-2-2-2-2-2-2-2-2-2-2-2-------------------------------------|
    . . . . . . .   . .   . . .

slow bridge 4x
|-------------------------------------------------------------------|
|-------------------------------------------------------------------|
|-------------------------------------------------------------------|
|-2-----------------------------------------------------------------|
|-2----5-7-7-7------------------------------------------------------|
|-0-00-3-5-5-5------------------------------------------------------|
    ..

slow chorus 2x
|-------------------------------------------------------------------|
|-------------------------------------------------------------------|
|-------------------------------------------------------------------|
|-------------------------------------------------------------------|
|-9---------------9-----9---9-9-9-----------------------------------|
|-7-7-7-7-7-7-7-7-7-7-7-7-7-7-7-7-----------------------------------|
    . . . . . . .   . .   . .
|-------------------------------------------------------------------|
|-------------------------------------------------------------------|
|-------------------------------------------------------------------|
|-------------------------------------------------------------------|
|-7---------------7-----7---7-7-7-----------------------------------|
|-5-5-5-5-5-5-5-5-5-5-5-5-5-5-5-5-----------------------------------|
    . . . . . . .   . .   .
|-------------------------------------------------------------------|
|-------------------------------------------------------------------|
|-------------------------------------------------------------------|
|-------------------------------------------------------------------|
|-9---------------9-----9---9-9-9--7---5---2-2----------------------|
|-7-7-7-7-7-7-7-7-7-7-7-7-7-7-7-7--5---3---0-0----------------------|
    . . . . . . .   . .   . .

Now the song begins proper! It's impossible (or improbable, at least annoying)
to tab all the variations in Bernemann's strumming and harmonics, by the way.
Listen to the song.

fast verse x1
|-------------------------------------------------------------------|
|-------------------------------------------------------------------|
|-------------------------------------------------------------------|
|-------------------------------------------------------------------|
|-2-----2-2-----2-2-----2-2-----2-4-----4-4-----4-4-----4-4-----4---|
|-0-00000-0-00000-0-00000-0-00000-2-22222-2-22222-2-22222-2-22222---|
    ,,,,    ,,,,    ,,,,    ,,,,    ,,,,    ,,,,    ,,,,    ,,,,
|-------------------------------------------------------------------|
|-------------------------------------------------------------------|
|-------------------------------------------------------------------|
|-------------------------------------------------------------------|
|-5----5---5---5---5---55-------------------------------------------|
|-3-3333-333-3333333-3333-------------------------------------------|
    ,,,  ,,  ,, ,,,  ,,

fast bridge 4x
|-------------------------------------------------------------------|
|-------------------------------------------------------------------|
|-------------------------------------------------------------------|
|-------------------------------------------------------------------|
|-2---5--7-7-7-------------------------------------------------------|
|-0--03--5-5-5-------------------------------------------------------|

fast chorus
|-------------------------------------------------------------------|
|-------------------------------------------------------------------|
|-------------------------------------------------------------------|
|-------------------------------------------------------------------|
|-9----9--9-9---9--99-7----7--7-7---7--77---------------------------|
|-7777777777777777777-5555555555555555555---------------------------|
   ,,,, ,, , ,,, ,,    ,,,, ,, , ,,, ,,
|-------------------------------------------------------------------|
|-------------------------------------------------------------------|
|-------------------------------------------------------------------|
|-------------------------------------------------------------------|
|-9----9--9-9---9--99-7--5--2---------------------------------------|
|-7777777777777777777-5--3--0---------------------------------------|
   ,,,, ,, , ,,, ,,

fast bridge 4x

guitar solo rhythm
*there is no rhythm guitarist on the album, so there are two options
if you're not playing a solo:

1)follow the bass part 4x:
|--------------------------------------------------------------------|
|--------------------------------------------------------------------|
|--------------------------------------------------------------------|
|-4-------4-------4-------2-2-2-2--4-------4-------------------------|
|-2-22222-2-22222-2-22222-0-0-0-0--2-22222-2-22222-------------------|
|--------------------------------------------------55555555-33333333-|

*OR*
			  . . . .
2)play the very similar rhythm guitar part used in the studio versions 4x:
|--------------------------------------------------------------------|
|--------------------------------------------------------------------|
|--------------------------------------------------------------------|
|-4-------4-------4-------7-6-7-6--4-------4-------2-----------------|
|-2-22222-2-22222-2-22222-5-4-5-4--2-22222-2-22222-0--5--------------|
|-----------------------------------------------------3--------------|
			  . . . .

fast verse 1x

fast bridge 4x

fast chorus 1x

fast bridge 4x

bass solo rhythm 2x

|--------------------------------------------------------------------|
|--------------------------------------------------------------------|
|--------------------------------------------------------------------|
|-4-------4-------4-------7-6-7-6--4-------4-------2-----------------|
|-2-22222-2-22222-2-22222-5-4-5-4--2-22222-2-22222-0--5--------------|
|-----------------------------------------------------3--------------|
			  . . . .

|--------------------------------------------------------------------|
|--------------------------------------------------------------------|
|--------------------------------------------------------------------|
|-4-------4-------4-------7-6-7-6--4-------4-------------------------|
|-2-22222-2-22222-2-22222-5-4-5-4--2-22222-2-22222--5----------------|
|---------------------------------------------------3----------------|
                          . . . .

fast verse 1x and jam out on D5s and cymbals and feedback.

END

  Visit MetalTabs.com for more metal tablature

bottom separator

Contact Us | Privacy Policy | Disclaimer | Legal Notice
Copyright © 2001-2014 MetalTabs.com. All Rights Reserved.