top separator

Home

Forum

What's New

Submit a Tab

FAQ

Links

Contact Us

Link to Us

MetalTabs.com logo

Bands

0-9

A

B

C

D

E

F

G

H

I

J

K

L

M

N

O

P

Q

R

S

T

U

V

W

X

Y

Z

Search

What

Where
 

Sodom - "Die Stumme Ursel" Guitar Tab

Plain Text Version
More Sodom Tabs

Hits: 2436
Updated: 2007-01-27 00:27:32

 

By:

mathias krieg

sendpm.gif

email.gif

Important note
This tab is available online because we obtained explicit permission from Sodom or their label.


#----------------------------------PLEASE NOTE---------------------------------#
#This file is the author's own work and represents their interpretation of the #
#song. You may only use this file for private study, scholarship, or research. #
#Unless specified otherwise, this is NOT an official tab from the band members.#
#------------------------------------------------------------------------------#

  Visit MetalTabs.com for more metal tablature
  
Band:  SODOM
Album: One Night in Bangkok (live)
Song:  Die Stumme Ursel

Copyright (c)  SPV/Steamhammer 2003
Version 1.0 - 18 January 2007

Transcribed By: matt
Email:          mathiaskrieg@yahoo.com


.  - palm mute           /  - slide up to
\  - slide down to       ~  - vibrato
h  - hammer on           b  - Bend
p  - pull off            Suffixes for bend
t  - tap                 f  - full bend    h - half bend
ph - pinched harmonic    q  - quarter bend t - tap bend
*  - see comment         ^  - Hold bend    r release bend
x  - Stuccatto           ~  - vibrato bend
,  - slight palm mute    () - ghost note, sustained note
"  - tremolo note        <> - Trill

Tuning D G C F A D

intro 2x solo, 2x with band
(play dead notes with a loose strumming rock and roll type of motion)
|-------------------------------------------------------------------|
|-------------------------------------------------------------------|
|-------------------------------------------------------------------|
|-------5-----------------------------------------------------------|
|-5--xx-3--xx-3-3-3-2-----------------------------------------------|
|-3--xx----xx-1-1-1-0-----------------------------------------------|


verse 8x
|-------------------------------------------------------------------|
|-------------------------------------------------------------------|
|-------------------------------------------------------------------|
|-------------------------------------------------------------------|
|------3333---------------------------------------------------------|
|-3333------11111100------------------------------------------------|

bridge / riff 3 1x
|-------------------------------------------------------------------|
|-------------------------------------------------------------------|
|-------------------------------------------------------------------|
|-------------------------------------------------------------------|
|-7----8----9~---10~----7--------8--------9--------10---------------|
|-5----6----7~----8~----55555555-66666655-77777778--8---------------|

verse 8x

bridge 1x

chorus is same as intro riff, 4x

verse 8x

bridge 1x

chorus 4x, then bass for 1.5 bars, guitar rejoins on the D#5, chorus 2x more

solo rhythm (Sodom is a 3 piece so I've transcribed the bass part)
|-------------------------------------------------------------------|
|-------------------------------------------------------------------|
|-------------------------------------------------------------------|
|-------------------------------------------------------------------|
|-5-5-5-5-3-3-3-3-5-5-5-5-3-3-3-3-5-5-5-5-3-3-3-3-5-5-5-5-3-3-3-3---|
|-3-3-3-3-1-1-1-1-3-3-3-3-1-1-1-1-3-3-3-3-1-1-1-1-3-3-3-3-1-1-1-1---|

|---------------------------------------------------------------------|
|---------------------------------------------------------------------|
|---------------------------------------------------------------------|
|-------------------------------------------------------5--7--9--/14\-|
|-33333333-55555555-33333333-77777777-33333333-55555555-3--5--7--/12\-|
|---------------------------------------------------------------------|

chorus 4x

verse 8x

bridge 1x, pause

chorus 4x

 outro
|-------------------------------------------------------------------|
|-------------------------------------------------------------------|
|-------------------------------------------------------------------|
|-------7-----------------------------------------------------------|
|-7-x---5-x------------x-repeat-------7777--------------------------|
|-5-x-----x--33333333--x---------7777------55555555-----------------|


|-------------------------------------------------------------------|
|-------------------------------------------------------------------|
|-------------------------------------------------------------------|
|-------------------------------------------------------------------|
|-------7777-7-7-7-7\-----------------------------------------------|
|--7777------5-5-5-5\-----------------------------------------------|


END

  Visit MetalTabs.com for more metal tablature

bottom separator

Contact Us | Privacy Policy | Disclaimer | Legal Notice
Copyright © 2001-2014 MetalTabs.com. All Rights Reserved.