top separator

Home

Forum

What's New

Submit a Tab

FAQ

Links

Contact Us

Link to Us

MetalTabs.com logo

Bands

0-9

A

B

C

D

E

F

G

H

I

J

K

L

M

N

O

P

Q

R

S

T

U

V

W

X

Y

Z

Search

What

Where
 

Lake of Tears - "Leave A Room" Bass Tab

Plain Text Version
More Lake of Tears Tabs

Hits: 2298
Rated: 5.00 out of 5 (1 vote)
Updated: 2007-01-27 00:24:50

 

By:

FX A

sendpm.gif

email.gif

Important note
This tab is available online because we obtained explicit permission from Lake of Tears or their label.


#----------------------------------PLEASE NOTE---------------------------------#
#This file is the author's own work and represents their interpretation of the #
#song. You may only use this file for private study, scholarship, or research. #
#Unless specified otherwise, this is NOT an official tab from the band members.#
#------------------------------------------------------------------------------#

  Visit MetalTabs.com for more metal tablature
  
Band:  Lake of Tears
Album: Neonai/Greatest Tears: VII
Song:  Leave a Room

Copyright (c) Label: Black Mart 2002(N)/2003(GT v2)
Version 1.0 – April-May 2002

Transcribed By: Aidan FX H on 18 Jan 2007
Email: aidanfxherman@hotmailcom
Bass Tab

Ok, pretty simple song, nothing technical; but cool to play

Tuning E A D G

Main Riff

|-------------------------------------------------------------------|
|-------------------------------------------------------------------|
|--3--2----0--------------------------------------------------------|
|-----------------------3-------------------------------------------|
                         (Let ring)
Pre chorus
|-------------------------------------------------------------------|
|-------------------------------------------------------------------|
|---3-3-3-3--3-3----------------------------------------------------|
|-------------------------------------------------------------------|
There is a pre chorus with no chorus (1st Verse) play A note
then G back to main riff

Chorus (x2)

Play heaps of A notes consecutively quite fast
|------------|
|------------|
|--0-0-0—0etc|
|------------| then………..

|-------------------------------------------------------------------|
|-------------------------------------------------------------------|
|-------------------3-3-3-3-3-3-3-3---------------------------------|
|--3-3-3-3-3-3-3-3--------------------------------------------------|

   “So and”….       “and a smile”. (watch the timing of the changes)

END

This should be enough to get you through it!!

  Visit MetalTabs.com for more metal tablature

bottom separator

Contact Us | Privacy Policy | Disclaimer | Legal Notice
Copyright © 2001-2014 MetalTabs.com. All Rights Reserved.