top separator

Home

Forum

What's New

Submit a Tab

FAQ

Links

Contact Us

Link to Us

MuSpy.com

MetalTabs.com logo

Bands

0-9

A

B

C

D

E

F

G

H

I

J

K

L

M

N

O

P

Q

R

S

T

U

V

W

X

Y

Z

Search

What

Where
 

Jungle Rot - "Low Life" Guitar Tab

Plain Text Version
More Jungle Rot Tabs

Hits: 1697
Rated: 4.00 out of 5 (1 vote)
Updated: 2007-01-27 00:17:01

 

By:

megahead

sendpm.gif

email.gif

Important note
This tab is available online because we obtained explicit permission from Jungle Rot or their label.


#----------------------------------PLEASE NOTE---------------------------------#
#This file is the author's own work and represents their interpretation of the #
#song. You may only use this file for private study, scholarship, or research. #
#Unless specified otherwise, this is NOT an official tab from the band members.#
#------------------------------------------------------------------------------#

  Visit MetalTabs.com for more metal tablature
  
Band: JUNGLE ROT
 Album: Fueled By Hate
 Song: Low Life

 Copyright (c) Olympic Recordings, 2004
 Version 1.0 -  2007

 Transcribed By: Justin Bilodeau
 Email: jimbob_922@hotmail.com

 Tuning: 3 steps down (B)

 .  - palm mute           /  - slide up to
\  - slide down to       ~  - vibrato
h  - hammer on           b  - Bend
p  - pull off            Suffixes for bend
t  - tap                 f  - full bend    h - half bend
ph - pinched harmonic    q  - quarter bend t - tap bend
*  - see comment         ^  - Hold bend    r release bend
x  - Stuccatto           ~  - vibrato bend
,  - slight palm mute    () - ghost note, sustained note
"  - tremolo note        <> - Trill

RIFF A (intro):
  3x
|-----------------||-----------------|
|-----------------||-----------------|
|-----------------||-----------------|
|-----------------||---------4-3-4-3-|
|-5-4-------------||-5-4-5-4-2-1-2-1-|
|-3-2-0-0-0-0-0-0-||-3-2-3-2---------|
      * * * * * *


RIFF B:
   3x
|------------------||-----------------|
|------------------||-----------------|
|------------------||-----------------|
|------------------||---------4-3-4-3-|
|-5-4--------------||-5-4-5-4-2-1-2-1-|
|-3-2-0-0-0000-0-0-||-3-2-3-2---------|
      * * **** * *


RIFF C:
   3x
|----------------||---------------------|
|----------------||---------------------|
|----------------||---------------------|
|----------------||---------------------|
|-5-4------------||-----------2222-1111-|
|-3-2-0-0-0--0-0-||-3333-2222-----------|
      * * *  * *


RIFF B
RIFF C


|------|
|------|
|------|
|------|
|-2----|
|-0----|


    3x
|----------------||------------|
|----------------||------------|
|----------------||------------|
|----------------||------------|
|----------5-5-5-||----------5-|
|-00000000-3-3-3-||-00000000-3-|


RIFF E:
    3x
|----------------||--------------------|
|----------------||--------------------|
|----------------||--------------------|
|----------------||--------------------|
|----------5-5-5-||-11111111-0000------|
|-00000000-3-3-3-||---------------3333-|


RIFF F:
|-------------|
|-------------|
|-------------|
|-------------|
|-------5-5-5-|
|-0-0-0-3-3-3-|
  * * *


RIFF C

END

  Visit MetalTabs.com for more metal tablature

bottom separator

Contact Us | Privacy Policy | Disclaimer | Legal Notice
Copyright © 2001-2014 MetalTabs.com. All Rights Reserved.